Oops, an error
Loading. Please wait.
We have an official Someone Somewhere tab made by UG professional guitarists. Check out the tab »
×
853 views 21 this week
no commentswrite comment
1 2 3 4 5
3 more votes to show rating
add to favorites
×
Save as Personal and add changes to this tab that will be seen only by you. Learn more ›
×
You can save this tab as Personal to edit and correct it or add notes. All changes will be seen only by you. Learn more »
launch autoscroll
font size
0
reset
how to read this tab
guitar tuner
edit
Autoscroll
slow
fast
+/-
esc
set tempo
stop
This is the Youtube video of the band performing the song: https://www.youtube.com/watch?v=kN45frAwq-Y
I know there are already some versions of this but they sound slightly wrong to me especially in the riff.

Song: Someone Somewhere (Acoustic)
Artist: Asking Alexandria
Album: from Death To Destiny 
Tuning: Drop C


[Intro]

D|---------------------------------------------------------------------------|
A|---------------------------------------------------------------------------|
F|--X--X--X--X---9-/10--10-10-10-10--10-10-10-10\--9-9-9---------------------|
C|--X--X--X--X---X-/X---X--X--X--X---X--X--X--X-\--X-X-X---------------------| (X3)
G|--X--X--X--X---7-/8---8--8--8--8---8--8--8--8-\--7-7-7---------------------|
C|---------------------------------------------------------------------------|

D|---------------------------------------------------------------------------|
A|---------------------------------------------------------------------------|
F|---/10--10-10-10-10--10-10-10-10/--12-12-12--------------------------------|
C|---/X---X--X--X--X---X--X--X--X-/--X--X--X---------------------------------|
G|---/8---8--8--8--8---8--8--8--8-/--10-10-10--------------------------------|
C|---------------------------------------------------------------------------|

D|---------------------------------------------------------------------------|
A|---------------------------------------------------------------------------|
F|--X--X--X--X---9-/10--10-10-10-10--10-10-10-10\--9-9-9---------------------|
C|--X--X--X--X---X-/X---X--X--X--X---X--X--X--X-\--X-X-X---------------------| (X3)
G|--X--X--X--X---7-/8---8--8--8--8---8--8--8--8-\--7-7-7---------------------|
C|---------------------------------------------------------------------------|

D|---------------------------------------------------------------------------|
A|---------------------------------------------------------------------------|
F|---/10--10-10-10-10--10-10-10-10/--12-12-12--------------------------------|
C|---/X---X--X--X--X---X--X--X--X-/--X--X--X---------------------------------|
G|---/8---8--8--8--8---8--8--8--8-/--10-10-10--------------------------------|
C|---------------------------------------------------------------------------|

D|---------------------------------------------------------------------------|
A|---------------------------------------------------------------------------|
F|-9-/10--10-10-10-10--10-10-10-10\--9-9-9-----------------------------------|
C|-X-/X---X--X--X--X---X--X--X--X-\--X-X-X-----------------------------------| (X3)
G|-7-/8---8--8--8--8---8--8--8--8-\--7-7-7-----------------------------------|
C|---------------------------------------------------------------------------|

D|---------------------------------------------------------------------------|
A|---------------------------------------------------------------------------|
F|---/10--10-10-10-10--10-10-10-10/--12-12-12--------------------------------|
C|---/X---X--X--X--X---X--X--X--X-/--X--X--X---------------------------------|
G|---/8---8--8--8--8---8--8--8--8-/--10-10-10--------------------------------|
C|---------------------------------------------------------------------------|


[Verse]

D|------------------|----------------|-------------------|-------------------|
A|------------------|----------------|-------------------|-------------------|
F|------------------|----------------|-------------------|-------------------|
C|------------------|-----------5--7-|-----------------8-|-----------8-------|
G|--------5---7---8-|-------8--------|-------10---12-----|-------8-----12-10-|
C|--5-5-5---5---5---|-5-5-5---5---5--|-8-8-8----8----8---|-8-8-8---8---------|

D|------------------|-----------------|-----------------|----------------------|
A|------------------|-----------------|-----------------|----------------------|
F|------------------|-----------------|-----------------|----------------------|
C|----------------3-|-----------3-----|-----------------|-8-7-5-7-5------------| (x2)
G|--------3---7-----|-------7-------7-|-------5---7---8-|----------8-7-5-------|
C|--3-3-3---3---3---|-3-3-3---3---3---|-0-0-0---0---0---|----------------------|


[Chorus]

D|---------------------------------------------------------------------------|
A|---------------------------------------------------------------------------|
F|--X--X--X--X---5--5-5-5-5--5-5-5-5--5-5-5-5---8--8-8-8-8--8-8-8-8--8-8-8-8-|
C|--X--X--X--X---5--5-5-5-5--5-5-5-5--5-5-5-5---8--8-8-8-8--8-8-8-8--8-8-8-8-|
G|--X--X--X--X---5--5-5-5-5--5-5-5-5--5-5-5-5---8--8-8-8-8--8-8-8-8--8-8-8-8-|
C|---------------------------------------------------------------------------|

D|-----------------------------------------------------------------------------|
A|-----------------------------------------------------------------------------|
F|---3--3-3-3-3--3-3-3-3--3-3-3-3---0--0-0-0-0--0-0-0-0--0-0-0-0---------------|
C|---3--3-3-3-3--3-3-3-3--3-3-3-3---0--0-0-0-0--0-0-0-0--0-0-0-0---------------|
G|---3--3-3-3-3--3-3-3-3--3-3-3-3---0--0-0-0-0--0-0-0-0--0-0-0-0---------------|
C|-----------------------------------------------------------------------------|

D|--------------------------------------------------------------|
A|--------------------------------------------------------------|
F|--7--7-7-7-7--7-7-7-7--7-7-7-7--/9--9-9-9-9--9-9-9-9--9-9-9-9-|
C|--X--X-X-X-X--X-X-X-X--X-X-X-X--/X--X-X-X-X--X-X-X-X--X-X-X-X-|
G|--5--5-5-5-5--5-5-5-5--5-5-5-5--/7--7-7-7-7--7-7-7-7--7-7-7-7-|
C|--------------------------------------------------------------|

D|------------------------------------------------------------------------------------------|
A|------------------------------------------------------------------------------------------|
F|----10--10-10-10-10--10-10-10-10--10-10-10-10--/12--12-12-12-12--12-12-12-12--12-12-12-12-|
C|----X---X--X--X--X---X--X--X--X---X--X--X--X---/X---X--X--X--X---X--X--X--X---X--X--X--X--|
G|----8---8--8--8--8---8--8--8--8---8--8--8--8---/10--10-10-10-10--10-10-10-10--10-10-10-10-|
C|------------------------------------------------------------------------------------------|


[Verse]

D|-x-x-x-x------------------|----------------|-------------------|-------------------|
A|-x-x-x-x------------------|----------------|-------------------|-------------------|
F|-x-x-x-x------------------|----------------|-------------------|-------------------|
C|-x-x-x-x------------------|-----------5--7-|-----------------8-|-----------8-------|
G|-x-x-x-x--------5---7---8-|-------8--------|-------10---12-----|-------8-----12-10-|
C|-x-x-x-x--5-5-5---5---5---|-5-5-5---5---5--|-8-8-8----8----8---|-8-8-8---8---------|

D|-------------------|-----------------|-----------------|---------------------|
A|-------------------|-----------------|-----------------|---------------------|
F|-------------------|-----------------|-----------------|---------------------|
C|-----------------3-|-----------3-----|-----------------|-8-7-5-7-5-----------| 
G|---------3---7-----|-------7-------7-|-------5---7---8-|----------8-7-5------|
C|---3-3-3---3---3---|-3-3-3---3---3---|-0-0-0---0---0---|---------------------|


[Chorus]

D|---------------------------------------------------------------------------|
A|---------------------------------------------------------------------------|
F|--X--X--X--X---9-/10--10-10-10-10--10-10-10-10\--9-9-9---------------------|
C|--X--X--X--X---X-/X---X--X--X--X---X--X--X--X-\--X-X-X---------------------| (X3)
G|--X--X--X--X---7-/8---8--8--8--8---8--8--8--8-\--7-7-7---------------------|
C|---------------------------------------------------------------------------|

D|---------------------------------------------------------------------------|
A|---------------------------------------------------------------------------|
F|---/10--10-10-10-10--10-10-10-10/--11-11-11--------------------------------|
C|---/X---X--X--X--X---X--X--X--X-/--X--X--X---------------------------------|
G|---/8---8--8--8--8---8--8--8--8-/--9--9--9---------------------------------|
C|---------------------------------------------------------------------------|

D|---------------------------------------------------------------|
A|---------------------------------------------------------------|
F|---5--5-5-5-5--5-5-5-5--5-5-5-5---8--8-8-8-8--8-8-8-8--8-8-8-8-|
C|---5--5-5-5-5--5-5-5-5--5-5-5-5---8--8-8-8-8--8-8-8-8--8-8-8-8-|
G|---5--5-5-5-5--5-5-5-5--5-5-5-5---8--8-8-8-8--8-8-8-8--8-8-8-8-|
C|---------------------------------------------------------------|

D|-----------------------------------------------------------------------------|
A|-----------------------------------------------------------------------------|
F|-----3--3-3-3-3--3-3-3-3--3-3-3-3---0--0-0-0-0--0-0-0-0--0-0-0-0-------------|
C|-----3--3-3-3-3--3-3-3-3--3-3-3-3---0--0-0-0-0--0-0-0-0--0-0-0-0-------------| 
G|-----3--3-3-3-3--3-3-3-3--3-3-3-3---0--0-0-0-0--0-0-0-0--0-0-0-0-------------|
C|-----------------------------------------------------------------------------|

D|--------------------------------------------------------------|
A|--------------------------------------------------------------|
F|--7--7-7-7-7--7-7-7-7--7-7-7-7--/9--9-9-9-9--9-9-9-9--9-9-9-9-|
C|--X--X-X-X-X--X-X-X-X--X-X-X-X--/X--X-X-X-X--X-X-X-X--X-X-X-X-|
G|--5--5-5-5-5--5-5-5-5--5-5-5-5--/7--7-7-7-7--7-7-7-7--7-7-7-7-|
C|--------------------------------------------------------------|

D|------------------------------------------------------------------------------------------|
A|------------------------------------------------------------------------------------------|
F|----10--10-10-10-10--10-10-10-10--10-10-10-10--/12--12-12-12-12--12-12-12-12--12-12-12-12-|
C|----X---X--X--X--X---X--X--X--X---X--X--X--X---/X---X--X--X--X---X--X--X--X---X--X--X--X--|
G|----8---8--8--8--8---8--8--8--8---8--8--8--8---/10--10-10-10-10--10-10-10-10--10-10-10-10-|
C|------------------------------------------------------------------------------------------|


[Breakdown]

D|--------------------------------------------------------------------------------------------------|
A|--------------------------------------------------------------------------------------------------|
F|--------------------------------------------------------------------------------------------------|
C|-5h7p5------------------------------5h7p5-------------------------5h7p5---------------------------|
G|-------7/8--0-0-0---0-0-0---0-0-0---------7/8-0-0---0-0-0---0-0---------7/8-0-0-0---0-0-0---0-0-0-|
C|------------0-0-0---0-0-0---0-0-0-------------0-0---0-0-0---0-0-------------0-0-0---0-0-0---0-0-0-|

D|-------------------------------------------------|
A|-------------------------------------------------|
F|-------------------------------------------------|
C|-------------------------------------------------| (x2)
G|-5-5--5-5-5--5-5--5-5-5---8-8--8-8-8--8-8--8-8-8-|
C|-5-5--5-5-5--5-5--5-5-5---8-8--8-8-8--8-8--8-8-8-|


[Chorus]

D|---------------------------------------------------------------------|
A|---------------------------------------------------------------------|
F|----5--5-5-5-5--5-5-5-5--5-5-5-5---8--8-8-8-8--8-8-8-8--8-8-8-8------|
C|----5--5-5-5-5--5-5-5-5--5-5-5-5---8--8-8-8-8--8-8-8-8--8-8-8-8------|
G|----5--5-5-5-5--5-5-5-5--5-5-5-5---8--8-8-8-8--8-8-8-8--8-8-8-8------|
C|---------------------------------------------------------------------|

D|-----------------------------------------------------------------------|
A|-----------------------------------------------------------------------|
F|-3--3-3-3-3--3-3-3-3--3-3-3-3---0--0-0-0-0--0-0-0-0--0-0-0-0-----------|
C|-3--3-3-3-3--3-3-3-3--3-3-3-3---0--0-0-0-0--0-0-0-0--0-0-0-0-----------| 
G|-3--3-3-3-3--3-3-3-3--3-3-3-3---0--0-0-0-0--0-0-0-0--0-0-0-0-----------|
C|-----------------------------------------------------------------------|

D|--------------------------------------------------------------|
A|--------------------------------------------------------------|
F|--7--7-7-7-7--7-7-7-7--7-7-7-7--/9--9-9-9-9--9-9-9-9--9-9-9-9-|
C|--X--X-X-X-X--X-X-X-X--X-X-X-X--/X--X-X-X-X--X-X-X-X--X-X-X-X-|
G|--5--5-5-5-5--5-5-5-5--5-5-5-5--/7--7-7-7-7--7-7-7-7--7-7-7-7-|
C|--------------------------------------------------------------|

D|------------------------------------------------------------------------------------------|
A|------------------------------------------------------------------------------------------|
F|----10--10-10-10-10--10-10-10-10--10-10-10-10--/12--12-12-12-12--12-12-12-12--12-12-12-12-|
C|----X---X--X--X--X---X--X--X--X---X--X--X--X---/X---X--X--X--X---X--X--X--X---X--X--X--X--|
G|----8---8--8--8--8---8--8--8--8---8--8--8--8---/10--10-10-10-10--10-10-10-10--10-10-10-10-|
C|------------------------------------------------------------------------------------------|

D|---------------------------------------------------------------------|
A|---------------------------------------------------------------------|
F|----5--5-5-5-5--5-5-5-5--5-5-5-5---8--8-8-8-8--8-8-8-8--8-8-8-8------|
C|----5--5-5-5-5--5-5-5-5--5-5-5-5---8--8-8-8-8--8-8-8-8--8-8-8-8------|
G|----5--5-5-5-5--5-5-5-5--5-5-5-5---8--8-8-8-8--8-8-8-8--8-8-8-8------|
C|---------------------------------------------------------------------|

D|-------------------------------------------------------------------------|
A|-------------------------------------------------------------------------|
F|-3--3-3-3-3--3-3-3-3--3-3-3-3---0--0-0-0-0--0-0-0-0--0-0-0-0-------------|
C|-3--3-3-3-3--3-3-3-3--3-3-3-3---0--0-0-0-0--0-0-0-0--0-0-0-0-------------| 
G|-3--3-3-3-3--3-3-3-3--3-3-3-3---0--0-0-0-0--0-0-0-0--0-0-0-0-------------|
C|-------------------------------------------------------------------------|


[Outro]

D|--------------------------------------------------------------|
A|--------------------------------------------------------------|
F|--7--7-7-7-7--7-7-7-7--7-7-7-7--/9--9-9-9-9--9-9-9-9--9-9-9-9-|
C|--X--X-X-X-X--X-X-X-X--X-X-X-X--/X--X-X-X-X--X-X-X-X--X-X-X-X-|
G|--5--5-5-5-5--5-5-5-5--5-5-5-5--/7--7-7-7-7--7-7-7-7--7-7-7-7-|
C|--------------------------------------------------------------|

D|------------------------------------------------------------------------------------------|
A|------------------------------------------------------------------------------------------|
F|----10--10-10-10-10--10-10-10-10--10-10-10-10--/12--12-12-12-12--12-12-12-12--12-12-12-12-|
C|----X---X--X--X--X---X--X--X--X---X--X--X--X---/X---X--X--X--X---X--X--X--X---X--X--X--X--|
G|----8---8--8--8--8---8--8--8--8---8--8--8--8---/10--10-10-10-10--10-10-10-10--10-10-10-10-|
C|------------------------------------------------------------------------------------------|

D|--------------------------------------------------------------------|
A|--------------------------------------------------------------------|
F|--------------------------------------------------------------------|
C|-5h7p5--------------------------------5h7p5-------------------------|
G|-------7/8~--0-0-0---0-0-0---0-0-0---------7/8~-0-0---0-0-0---0-0---|
C|-------------0-0-0---0-0-0---0-0-0--------------0-0---0-0-0---0-0---|


************************************

| x   Dead note
| h   Hammer-on
| p   Pull-off
| /   Slide up
| \   Slide down
| ~   Vibrato 

************************************

            
            
Suggest correction
Creating personal tab
Creating personal tab
You can edit any tab online and save it as your Personal.

You can edit, replace or remove any tab part or add personal notes – all changes will be seen only by you.

Personal tabs can be accessed anytime from any device, even offline.
Learn more »
Give kudos to tab author, rate the tab!
1 2 3 4 5
comments
print report bad tab
guest
You may want to rate the tab now too:
select rating
Wanna post a correction for this tab? Suggest correction