Oops, an error
Loading. Please wait.

When Everydays The Weekend tab

version 2
version 2

Whole song

Interactive

10,993 views 3 this week
1 commentread comment
1 2 3 4 5
x 12
add to favorites
×
Save as Personal and add changes to this tab that will be seen only by you. Learn more ›
×
You can save this tab as Personal to edit and correct it or add notes. All changes will be seen only by you. Learn more »
launch autoscroll
font size
0
reset
how to read this tab
guitar tuner
edit
Autoscroll
slow
fast
+/-
esc
set tempo
stop
here's my cover of this song just in case you needa know how
it sounds like :)


http://www.youtube.com/watch?v=Qp1VExEJcuU&feature=related




E|----------------------------------|
B|----------------------------------|
G|----------------------------------|
D|-------------8-7------------------|
A|-000--8p7---------8p7-10p8-8h7----|
D|-000------10-----0----------------|
   ...             .

E|----------------------------------|
B|----------------------------------|
G|----------------------------------|
D|-------------8-7------------------|
A|-000--8p7---------8p7-10p8-7*-----|
D|-000------10-----0----------------|
   ...             .




 Guitar 1
E|----------------------------------|
B|----------------------------------|
G|----------------------------------|
D|-------------8-7------------------|
A|-000--8p7---------8p7-10p8-8h7----|
D|-000------10-----0----------------|
   ...             .

 Guitar 2 
E|-------------------------------------------|
B|-------------------------------------------|
G|-------------------------------------------|
D|---------------12-10-----------------------|
A|-000--12p10-----------12p10-13p12-10h12----|
D|-000--------12------0----------------------|
   ...                .




 Guitar 1
E|------------------|
B|------------------|
G|------------------|
D|-------------8-7--|
A|-000--8p7---------|
D|-000------10------|
   ...

 Guitar 2
E|----------------------|
B|----------------------|
G|----------------------|
D|---------------12-10--|
A|-000--12p10-----------|
D|-000--------14--------|
   ...






0:12   "Another sunset..."
E|-----------------------------|
B|-----------------------------|
G|-----------------------------| 
D|-------------8-7-------------|
A|-000--8p7---------8p7-10p7---|
D|-000------10-----0-----------|
   ...             .

E|------------------------------|
B|------------------------------|
G|------------------------------| 
D|-------------8-7------10------|
A|-000--8p7---------8p7----8----|
D|-000------10-----0------------|
   ...             .




 Guitar 1
E|-----------------------------|
B|-----------------------------|
G|-----------------------------| 
D|-------------8-7-------------|
A|-000--8p7---------8p7-10p7---|
D|-000------10-----0-----------|
   ...             .

 Guitar 2 
E|-------------------------------------------|
B|-------------------------------------------|
G|-------------------------------------------|
D|---------------12-10-----------------------|
A|-000--12p10-----------12p10-13p12----------|
D|-000--------14------0----------------------|
   ...                .





Guitar 1
E|----------------------------------|
B|----------------------------------|
G|----------------------------------|
D|-------------8-7------------------|
A|-000--8p7---------8p7-10p8-8h7----|
D|-000------10-----0----------------|
   ...             .


 Guitar 2 
E|-------------------------------------------|
B|-------------------------------------------|
G|-------------------------------------------|
D|---------------12-10-----------------------|
A|-000--12p10-----------12p10-13p12-10h12----|
D|-000--------14------0----------------------|
   ...                .





E|-----------------------------|
B|-----------------------------|
G|-----------------------------| x3
D|-------------8-7-------------|
A|-000--8p7---------8p7-10p7---|
D|-000------10-----0-----------|
   ...             .

E|----------------------------------|
B|----------------------------------|
G|----------------------------------|
D|-------------8-7------------------|
A|-000--8p7---------8p7-10p8-8h7----|
D|-000------10-----0----------------|
   ...             .

 Guitar 2
E|-----------------|
B|-----------------|
G|-----------------|
D|--0~~~-----------|
A|--0~~~-----------|
D|--0~~~-----------|


0:32
Guitar 1
E|---------------------------------------------------------|
B|---------------------------------------------------------|
G|---------------------------------------------------------|
D|---------------------------------------------------------|
A|--000-000--00000--00000--00000-000-000--00000--000-------|
D|--000-000--00000--00000--00000-000-000--00000--000-------|
    ... ...  .....  .....  ..... ... ...  .....  ...


0:37 "...ROLL!"
E|----------------------------------------------------------------|
B|----------------------------------------------------------------|
G|----------------------------------------------------------------|
D|----------------------------------------------------------------|
A|--000-000--00000--00000--00000-000-000--00000--00000--00000-----|
D|--000-000--00000--00000--00000-000-000--00000--00000--00000-----|
    ... ...  .....  .....  ..... ... ...  .....  .....  .....

0:42 "It's Amazing..."
E|----------------------------------------------------------------|
B|----------------------------------------------------------------|
G|----------------------------------------------------------------|
D|----------------------------------------------------------------|
A|--000-000--00000--00000--00000-000-000--00000--00000--0-0-0-----|
D|--111-111--11111--11111--11111-111-111--11111--11111--1-1-1-----|
    ... ...  .....  .....  ..... ... ...  .....  .....  . . .

0:47
E|-----------------------------------------|
B|-----------------------------------------|
G|-----------------------------------------|
D|-----------------------------------------|
A|-0-0--00--00--000-0-0--00--00--000-------|
D|-0-0--00--00--000-0-0--00--00--000-------|
   . .  ..  ..  ... . .  ..  ..  ...

E|-----------------------------------------|
B|-----------------------------------------|
G|-----------------------------------------|
D|-----------------------------------------|
A|-0-0~--00~--00~--000-0-0~--00~--00-------|
D|-0-0~--00~--00~--000-0-0~--00~--00-------|
   . .   ..   ..   ... . .   ..   ..

 Guitar 1 - 0:58 "Tonight's our night, like every night before..."
E|----------------------------|
B|----------------------------|
G|--10------12-----9----------| x3
D|--X-(x14)-X-(x7)-X-(x7)-----|
A|--8-------10-----7----------|
D|----------------------------|

1:13 "Until we fall..."
E|---------------------------|
B|---------------------------|
G|--10-------9-------7-------|
D|--X-(x14)--X-(x7)--X-(x7)--|
A|--8--------7-------5-------|
D|---------------------------|

 Guitar 2
E|-------------------------------------|
B|-------------------------------------|
G|--10------14-----12------10----------| x3
D|--X-(x14)-X-(x7)-X-(x7)--X--(X14)----|
A|--8-------12-----10------8-----------|
D|-------------------------------------|


 Added Guitar
e|------------------------------------------------|
B|------------------------------------------------|
G|------------------------------------------------| x3
D|--3-------10-----8------3-------12-------8------|
A|--3-(X7)--10(X7)-8(X14)-3-(x7)--12-(x7)--8-(x7)-|
D|--3-------10-----8------3-------12-------8------|


1:19
E|-------------------------------------|
B|-------------------------------------|
G|-----------------------------10--9---|
D|--0~-------------------------X---X---|
A|--0~-------------------------8---7---|
D|--0~---------------------------------|


1:25       "We'll drink you under the fucking table"                     
E|----------------------------------------|
B|----------------------------------------|
G|---------------------------10----9------|
D|--0~-----------------------X-----X------|
A|--0~-----------------------8-----7------|
D|--0~-------------------------0-0--------|
                               . .

  "Rack 'em up!"
E|-----------------------|
B|-----------------------|
G|-----------------------|
D|-----------------------| x3
A|--0-0--0000---000000---|
D|--0-0--0000---000000---|
    . .  ....   ......

  "Put 'em down!"
E|-----------------|
B|-----------------|
G|-----------------|
D|-----------------|
A|--0-0--0000------|
D|--0-0--0000------|
    . .  ....

1:48
E|---------------------------|
B|---------------------------|
G|---------------------------|
D|---------------------------| x2
A|--0~-0~--0000~---000000~---|
D|--0~-0~--0000~---000000~---|
    .  .   ....    ......

E|--------|
B|--------|
G|--------|
D|--------|
A|-00-0~--|
D|-00-0~--|
   .. 


Then the Interlude/Dance Party part

Guitar doesn't resume til 2:43


2:43
E|-----------------------------------|
B|-----------------------------------|
G|-----------------------------------|
D|-----------------------------------|
A|--000000-0-00-00--0000000-000-000--|
D|--000000-0-00-00--0000000-000-000--|
    ...... . .. ..  ....... ... ...                               
                                                            

E|----------------------------------|
B|----------------------------------|
G|--------------------------10--9---|
D|--------------------------X---X---|
A|-000-000--00-00--000-000--8---7---|
D|-000-000--00-00--000-000----------|
   ... ...  .. ..  ... ...


E|-----------------------------------|
B|-----------------------------------|
G|-----------------------------------|
D|-----------------------------------|
A|--000000-0-00-00--0000000-000-000--|
D|--000000-0-00-00--0000000-000-000--|
    ...... . .. ..  ....... ... ...


E|----------------------------------|
B|----------------------------------|
G|--------------------------10--9---|
D|--------------------------X---X---|
A|-000-000--00-00--000-000--8---7---|
D|-000-000--00-00--000-000----------|
   ... ...  .. ..  ... ...


E|-----------------------------------|
B|-----------------------------------|
G|-----------------------------------|
D|-----------------------------------|
A|--000000-0-00-00--0000000-000-000--|
D|--000000-0-00-00--0000000-000-000--|
    ...... . .. ..  ....... ... ...


E|----------------------------------|
B|----------------------------------|
G|--------------------------10--9---|
D|--------------------------X---X---|
A|-000-000--00-00--000-000--8---7---|
D|-000-000--00-00--000-000----------|
   ... ...  .. ..  ... ...


E|-----------------------------------|
B|-----------------------------------|
G|-----------------------------------|
D|-----------------------------------|
A|--000000-0-00-00--0000000-000-000--|
D|--000000-0-00-00--0000000-000-000--|
    ...... . .. ..  ....... ... ...


E|----------------------------------|
B|----------------------------------|
G|--------------------------10--9---|
D|--------------------------X---X---|
A|-000-000--00-00--000-000--8---7---|
D|-000-000--00-00--000-000----------|
   ... ...  .. ..  ... ...


3:15
E|------|
B|------|
G|------|
D|-0~---|
A|-0~---|
D|-0~---|


    please rate an comment (:

            
            
Suggest correction
Creating personal tab
Creating personal tab
You can edit any tab online and save it as your Personal.

You can edit, replace or remove any tab part or add personal notes – all changes will be seen only by you.

Personal tabs can be accessed anytime from any device, even offline.
Learn more »
comments
print report bad tab
1 comment total.
+3 reply
juggalo9 10 Mar 04, 2012 06:28 AM

Nice tab dude! :)

guest
You may want to rate the tab now too:
select rating
Wanna post a correction for this tab? Suggest correction