Oops, an error
Loading. Please wait.

Just Enough To Make It Just chords

by Asteria
1,925 views 6 this week
4 commentsread comments
1 2 3 4 5
2 more votes to show rating
add to favorites
×
Save as Personal and add changes to this tab that will be seen only by you. Learn more ›
×
You can save this tab as Personal to edit and correct it or add notes. All changes will be seen only by you. Learn more »
launch autoscroll
font size
0
reset
transpose
0
reset
simplify chords
display chords
guitar tuner
edit
Autoscroll
slow
fast
+/-
esc
set tempo
stop
Strumming
There is no strumming pattern for this song yet. and get +5 IQ
Hey. This is my first tab so I'm hoping for the best! This is an awesome song and an 
better band. The lyrics were written up by me as well and i think they're 100% accurate. 
sorry for any mistakes. Enjoy!

Chords:(How I play 'em)
D/F#: 200232
A:    002220
G:    320003

Intro:
D/F# A G

Verse 1:
D/F#
Turn to the table,

A
And sit down the frame.

G
Sit for a minute,
And breathe until your heart regains strength.

D/F#
She loves you, she said,

A
And she lives for your kiss.

G
Still for a moment,
		   D/F#
She was living for his.


And if you fall I will catch you...


Chorus:
D/F#				    A
The only thing more fragile then my confidence,

	G			     D/F# A
Were my words in these three marks.

	   D/F#		    A
It's all a sorry attempt to forget your face,

G		               D/F# A
And to ease this broken heart


Verse 2:
D/F#
Rise to the occasion,

A
Make sure your faces fit.

G
And dress in silhouettes,

				     D/F#
For now it's (just enough to make it just).


Chorus:
D/F#				    A
The only thing more fragile then my confidence,

	G			     D/F# A
Were my words in these three marks.

	   D/F#		    A
It's all a sorry attempt to forget your face,

G		               D/F# A
And to ease this broken heart

Bridge:
G  G

Ending:
(When it hits "And if you fall..." play this)

e----2---2---2-------2---2---2-------2---2---2-------2---2---2------|
B--3---3---3---3-3-3---3---3---3-3-3---3---3---3-3-3---3---3---3-3--|
G-0-0-0-0-0-0-0-0---------------------------------0-0-0-0-0-0-0-0---|
D-----------------4-4-4-4-4-4-4-4-0-0-0-0-0-0-0-0-------------------|
A-------------------------------------------------------------------|
E-------------------------------------------------------------------|

Repeat until the crescendo and the "climax" comes (after "and if you fall...".)

Then play this until the end

e-------------------0-5/3-3/2-2~ -5/3-3/2-2~ ------------------------|
B--2/3---3/2--2/3--3-------------------------------------------------|
G-2-----2----2----2--------------------------------------------------|
D--------------------------------------------------------------------|
A--------------------------------------------------------------------|
E--------------------------------------------------------------------|

And if you fall I will catch you...
And if you fall I will catch you...
And if you fall I will catch you...
And if you fall I will catch you...
I will catch you (I will catch you)
I will catch you (I will catch you)
I will catch you (I will catch you)
I will catch you (I will catch you)


There are 2 versions to this song. A demo and the one off the album "Slip In To 
More Comfortable." The tabs are all the same but the ending will be either shorter or longer. 
sure you can adjust. Happy playing.

            
            
Suggest correction
Creating personal tab
Creating personal tab
You can edit any tab online and save it as your Personal.

You can edit, replace or remove any tab part or add personal notes – all changes will be seen only by you.

Personal tabs can be accessed anytime from any device, even offline.
Learn more »
Give kudos to tab author, rate the tab!
1 2 3 4 5
comments
print report bad tab
4 comments total. Showing first comments.
0 reply
xChrisJohnson 221 Nov 13, 2008 02:33 PM

The A chord is supposed to be 002220 and at the last part

e-------------------0-5/3-3/2-2~ -5/3-3/2-2~ ------------------------|
B--2/3---3/2--2/3--3-------------------------------------------------|
G-2-----2----2----2--------------------------------------------------|
D--------------------------------------------------------------------|
A--------------------------------------------------------------------|
E--------------------------------------------------------------------|

0 reply
xChrisJohnson 221 Nov 13, 2008 02:33 PM

The A chord is supposed to be 002220 and at the last part

e-------------------0-5/3-3/2-2~ -5/3-3/2-2~ ------------------------|
B--2/3---3/2--2/3--3-------------------------------------------------|
G-2-----2----2----2--------------------------------------------------|
D--------------------------------------------------------------------|
A--------------------------------------------------------------------|
E--------------------------------------------------------------------|

0 reply
xChrisJohnson 221 Nov 13, 2008 02:33 PM

The A chord is supposed to be 002220 and at the last part

e-------------------0-5/3-3/2-2~ -5/3-3/2-2~ ------------------------|
B--2/3---3/2--2/3--3-------------------------------------------------|
G-2-----2----2----2--------------------------------------------------|
D--------------------------------------------------------------------|
A--------------------------------------------------------------------|
E--------------------------------------------------------------------|

guest
You may want to rate the tab now too:
select rating
Wanna post a correction for this tab? Suggest correction