Oops, an error
Loading. Please wait.

Alfaro Vive Carajo album bass

590 views 1 this week
no commentswrite comment
1 2 3 4 5
3 more votes to show rating
add to favorites
×
Save as Personal and add changes to this tab that will be seen only by you. Learn more ›
×
You can save this tab as Personal to edit and correct it or add notes. All changes will be seen only by you. Learn more »
launch autoscroll
font size
0
reset
guitar tuner
edit
Autoscroll
slow
fast
+/-
esc
set tempo
stop
Author
Difficulty
-------------------------------------------------------------------------------
			     ALFARO VIVE, CARAJO! - At the Drive-In
-------------------------------------------------------------------------------


BRADLEY SMITH
Intro:
|---------|
|---------|
|---------|
|-0-0-0-0-|

W/ Distortion
|-------------|
|-------------|
|--3-5-3-2----|
|----------3~-|

Main Riff:
|-------------------|------------|
|--10-9-7-----------|------------| x4
|---------10-121212-|--3-5-3-2---|
|-------------------|----------3-|


Verse:                                                      x2                 1.               2.
|------------------------------------------------------------|------------------|----------------|
|---------------454------------------454----------------454--|------------------|----------------|
|--5-555555-555-----5-3-333333-333-5-----5-------------------|-5-555555-555-5555|7777777777777777|
|------------------------------------------3-333333-333------|------------------|----------------|

Main riff

Break:
|--7777-7~-----------|
|-----------55442200-| x4
|--------------------|
|--------------------|

Verse

Main Riff

Break

Fill:
|---------|
|--7-9-12-|
|---------|
|---------|

Distortion Part to Fade


INSTIGATE THE ROLE
Verse Riff:
|----------------224---------------442-|
|--------------------------------------| x9
|--2-2-54-0-00-------2-2-54-0-00-------|
|--------------------------------------|

Pre-Chorus
|----------------------------------|
|----------------------------------| x2
|---------------0-2--------------2-|
|--3-333-333-33-----3-333-333-33---|

Chorus
|--------------|
|--------------| x4
|--3-2-3-2-3-5-|
|--------------|


Rest

Verse Riffx6

Pre Chorus

Chorus

Rest
                x2                 x2
|-----------------|-----------------|
|-----------------|--77-77-77-77-75-|
|-----------------|-----------------|
|--55-55-55-55-53-|-----------------|

Riff after Acapella section:
|-------------------------------------|
|-------------------------------------|
|--77------------10-12-3--------------|
|-----77-1010-11---------33-55-55-5-5-|

2nd last riff
|---------------------|
|---------------------| x4
|--7-7-7-7-7-7-7-7^---|
|---------------------|
Quarter bend on final E

Ending:
|----------------|
|----------------|
|--3-2-3-2-3-5---|
|--------------3~|

LUDIVICO DRIVE-IN

Intro:
|-----------------------------------|------------------------------|
|--5555---555---5---7777---777---7--|.1010101010-101010-10-1010-10.| x2
|------5-----5---5------7-----7---7-|.----------------------------.|
|-----------------------------------|------------------------------|
Verse i:
|----------------------7754---7754---|
|---------------------------7------7-| x2
|--0-00-3-5--------------------------|
|-----------3-33-3-3-----------------|
Verse ii:
|-------------------------------------|
|-------------------------------------| x1 
|--55-3-2-0-55-3-2-0-55-3-2-0-32-0-53-|
|-------------------------------------|
Repeat i+ii

"Chorus"                          x1                             x3
|----------------------------|-------------------------------|
|----------------------------|-------------------------------|
|--77-77---------55-55-33-33-|--77-77---------55-55-333-2-33-|
|----------33-33-------------|----------33-33----------------|

Verse i
Verse ii
Chorus

Final Riff

|--------------------------------------------|
|--------------------555---------------------|x4
|--777-57-57-57575-------777-555--------0-00-|
|------------------7--------------7-333------|

CIRCUIT SCENE

Intro:
|----------------------------|
|------------6h7-------------| x3
|--9-9~9-7-7-----5-5~5-7-7-7-|
|----------------------------|

Verse Riff:
|----------------------------------------|
|--7-777-77-77---------------------------| x4
|--------------797-5-555-55-55-5555------|
|----------------------------------------|

Chorus:
|----------------9997------------------97----|
|--------7---------------9-999-12-7-77----97-|x4
|--9-999---7-77------------------------------|
|--------------------------------------------|

Verse

Chorus

Bridge:
|--------------------7-77-77-|
|--------------7-77----------|x5
|--0-0-0-0-00----------------|
|----------------------------|

|----|
|----| x32
|--0-| 
|----|

|------------------------------------------------------------------|
|--7-7-7-7-7-7-7-7-7-7-7-7-7-7-7-7---------------------------------| 
|----------------------------------5-5-5-5-5-5-5-5-5-5-5-5-5-5-5-5-|
|------------------------------------------------------------------|

|------------------------------------------------------------------|
|--7-7-7-7-7-7-7-7-7-7-7-7-7-7-7-7---------------------------------| 
|----------------------------------5~~-----------------------------|
|------------------------------------------------------------------|


Chorus

|----|
|----|
|----| 
|-3~-|

END

            
            
Suggest correction
Creating personal tab
Creating personal tab
You can edit any tab online and save it as your Personal.

You can edit, replace or remove any tab part or add personal notes – all changes will be seen only by you.

Personal tabs can be accessed anytime from any device, even offline.
Learn more »
Give kudos to tab author, rate the tab!
1 2 3 4 5
comments
print report bad tab
guest
You may want to rate the tab now too:
select rating
Wanna post a correction for this tab? Suggest correction