Oops, an error
Loading. Please wait.

Relationship Of Command album bass

4,792 views 3 this week
no commentswrite comment
1 2 3 4 5
x 6
add to favorites
×
Save as Personal and add changes to this tab that will be seen only by you. Learn more ›
×
You can save this tab as Personal to edit and correct it or add notes. All changes will be seen only by you. Learn more »
launch autoscroll
font size
0
reset
guitar tuner
edit
Autoscroll
slow
fast
+/-
esc
set tempo
stop
AT THE DRIVE-IN
RELATIONSHIP OF COMMAND
BASS TAB

ARCARSENAL
Intro							X4
G|-----------------------|-----------------------|
D|-----------------------|-----------------------|
A|-----------------------|---2-0-----------------|
E|-0---------------------|-0---------3-2-0---3-5-|
  Riff 1
G|---------------------------------------|
D|---------------------------------------|
A|-5-7--7-7-5-7------5-7--7-7-5-7--------|
E|---------------------------------0-0-0-|
  Riff 2                                              2x
G|------------------------------------------------------|
D|------------------------------------------------------|
A|-5-7--7-7-5-7---------------5-7--7-7-5-7--------------|
E|--------------0-0--0-0--0-0--------------0-0--0-0-0--0|
  Last Time
G|------------------------------------------------------|
D|------------------------------------------------------|
A|-5-7--7-7-5-7---------------5-7--7-7-5----------------|
E|--------------0-0--0-0--0-0------------0--------------|

  Verse 1                                           2x
G|----------------------------------------------------|
D|----------------------------------------------------|
A|-7--7-7--7--7-7-7--5h7-5----------------------------|
E|-------------------------5--5-5-5-3--3-3-3--3-3-3-5-|

G|----------------------------------------------------|
D|----------------------------------------------------|
A|-7--7-7--7--7-7-7--5h7-5----------------------------|
E|-------------------------5--5-5-5-7--7-7-7--7-7-7-7-|
  Riff 2                                              4x
G|------------------------------------------------------|
D|------------------------------------------------------|
A|-5-7--7-7-5-7---------------5-7--7-7-5-7--------------|
E|--------------0-0--0-0--0-0--------------0-0--0-0-0--0|
 Verse 2
G|----------------------------------------------------|
D|----------------------------------------------------|
A|----------------------------------------------------|
E|-0-----------------------5--5-5-5-3--3-3-3--3-3-3-5-|

G|----------------------------------------------------|
D|----------------------------------------------------|
A|-7--7-7--7--7-7-7--5h7-5----------------------------|
E|-------------------------5--5-5-5-7--7-7-7--7-7-7-7-|
  Riff 2                                              4x
G|------------------------------------------------------|
D|------------------------------------------------------|
A|-5-7--7-7-5-7---------------5-7--7-7-5-7--------------|
E|--------------0-0--0-0--0-0--------------0-0--0-0-0--0|
Riff 3                                         4x
G|-------------------------------------------------|
D|-------------------------------------------------|
A|-9h10-9-5--5-5--5-5--5--5-5-/12--12-12--12-12-12-|
E|-------------------------------------------------|

G|----------------------------------------------|
D|----------------------------------------------|
A|-9h10-9-7--7-7--7-7--7--7-5h7--7-7-7-5h7--7-7-|
E|----------------------------------------------|
Riff 4
G|-----------------------------------------------------------------------|
D|-----------------------------------------------------------------------|
A|-----------------------------------------------------------------------|
E|-0-0-0-17-17-17-0-0-0-17-17-17-0-0-17-17-0-0-0-15-15-15-0-0-0-15-15-15-|

G|------------------------------------------------------------------------|
D|------------------------------------------------------------------------|
A|------------------------------------------------------------------------|
E|-0-0-15-15-0-0-0-14-14-14-0-0-0-14-14-14-0-0-14-14-0-0-0-12-12-12-0-0-0-|

G|--------------------|
D|--------------------|
A|--------------------|
E|-12-12-12-0-0-12-12-|
Riff 5
G|----------------------------------------------------------------------|
D|----------------------------------------------------------------------|
A|-5-5-5-5-5-5-5-5-5-5-5-5-/12-12-12-12-12-12-12-12-10-10-10-10-9-9-9-9-|
E|----------------------------------------------------------------------|

G|---------------------------------------------------------|
D|---------------------------------------------------------|
A|-7-7-7-7-7-7-7-7-7-7-7-7-7-7-7-7-7-7-7-7-7-7-7-7-9-9-9-9-|
E|---------------------------------------------------------|

PATTERN AGAINST USER
1. Intro                                                              2x
G|------------------------------------------------------------------------|
D|------------------------------------------------------------------------|
A|---------------------------------/9-9-9-9-9-9-(2)/10-10-10-9-10-9-10----|
E|-5-5-5-5-5-5-5-5-7-7-7-7-7-7-7-7----------------------------------------|
2. Verse 1                       4x
G|---------------------------------|
D|---------3---------------5--5----|
A|-5-5-5-5---5-5--3--3-3-3-------3-|
E|---------------------------------|

G|--------------------------------|
D|---------3----------------------|
A|-5-5-5-5---5-5--3-3-3-3-3-------|
E|--------------------------3-3-3-|
3. Chorus
G|------------------------------------------------------------------------|
D|------------------------------------------------------------------------|
A|---------------------------------/9-9-9-9-9-9-(2)/10-10-10-9-10-9-10----|
E|-5-5-5-5-5-5-5-5-7-7-7-7-7-7-7-7----------------------------------------|

G|------------------------------------------------------------------|
D|------------------------------------------------------------------|
A|------------------------------------------------------------------|
E|-5-5-5-5-5-5-5-5-7-7-7-7-7-7-7-7-2-2-2-2-2-2-2-2-3-3-3-2-3-2-3-3/-|

G|------------------------------------------------------------------------|
D|------------------------------------------------------------------------|
A|---------------------------------/9-9-9-9-9-9-(2)/10-10-10-9-10-9-10----|
E|-5-5-5-5-5-5-5-5-7-7-7-7-7-7-7-7----------------------------------------|

G|------------------------------------------------------------------------|
D|------------------------------------------------------------------------|
A|---------------------------------/9-9-9-9-9-9-(2)/10-10-10-9-10-9-10----|
E|-5-5-5-5-5-5-5-5-7-7-7-7-7-7-7-7----------------------------------------|
4. Verse 2                       4x
G|---------------------------------|
D|---------3---------------5--5----|
A|-5-5-5-5---5-5--3--3-3-3-------3-|
E|---------------------------------|

G|--------------------------------|
D|---------3----------------------|
A|-5-5-5-5---5-5--3-3-3-3-3-------|
E|--------------------------3-3-3-|


5. Chorus
G|------------------------------------------------------------------------|
D|------------------------------------------------------------------------|
A|---------------------------------/9-9-9-9-9-9-(2)/10-10-10-9-10-9-10----|
E|-5-5-5-5-5-5-5-5-7-7-7-7-7-7-7-7----------------------------------------|

G|------------------------------------------------------------------|
D|------------------------------------------------------------------|
A|------------------------------------------------------------------|
E|-5-5-5-5-5-5-5-5-7-7-7-7-7-7-7-7-2-2-2-2-2-2-2-2-3-3-3-2-3-2-3-3/-|

G|------------------------------------------------------------------------|
D|------------------------------------------------------------------------|
A|---------------------------------/9-9-9-9-9-9-(2)/10-10-10-9-10-9-10----|
E|-5-5-5-5-5-5-5-5-7-7-7-7-7-7-7-7----------------------------------------|

G|------------------------------------------------------------------------|
D|------------------------------------------------------------------------|
A|---------------------------------/9-9-9-9-9-9-(2)/10-10-10-9-10-9-10----|
E|-5-5-5-5-5-5-5-5-7-7-7-7-7-7-7-7----------------------------------------|
6. Bridge                                                            7x
G|---------------------------------------------------------------------|
D|-------7-7-7-7-7-7-7-7-7-9-9-9-9-0-0-0-9-9-9-7-7-7-7-7-7-7-7---------|
A|-9-9-9-------------------------------------------------------7-7-7-7-|
E|---------------------------------------------------------------------|
7. Chorus
G|------------------------------------------------------------------------|
D|------------------------------------------------------------------------|
A|---------------------------------/9-9-9-9-9-9-(2)/10-10-10-9-10-9-10----|
E|-5-5-5-5-5-5-5-5-7-7-7-7-7-7-7-7----------------------------------------|

G|------------------------------------------------------------------|
D|------------------------------------------------------------------|
A|------------------------------------------------------------------|
E|-5-5-5-5-5-5-5-5-7-7-7-7-7-7-7-7-2-2-2-2-2-2-2-2-3-3-3-2-3-2-3-3/-|

G|------------------------------------------------------------------|
D|------------------------------------------------------------------|
A|------------------------------------------------------------------|
E|-5-5-5-5-5-5-5-5-7-7-7-7-7-7-7-7-2-2-2-2-2-2-2-2-3-3-3-2-3-2-3-3/-|

G|------------------------------------------------------------------------|
D|------------------------------------------------------------------------|
A|---------------------------------/9-9-9-9-9-9-(2)/10-10-10-9-10-9-10----|
E|-5-5-5-5-5-5-5-5-7-7-7-7-7-7-7-7----------------------------------------|

G|------------------------------------------------------------------------|
D|------------------------------------------------------------------------|
A|---------------------------------/9-9-9-9-9-9-(2)/10-10-10-9-10-9-10----|
E|-5-5-5-5-5-5-5-5-7-7-7-7-7-7-7-7----------------------------------------|

ONE ARMED SCISSOR
INTRO
G||--------------|-------------||
D||--------------|-------------||
A||------------7-|------------7||
E||-0-0-0-0-0----|-0-0-0-0-0---||

VERSE (time change) X4
G||----|----|----|----|------------|------------|------------|-----------||
D||----|----|----|----|-7--7-7-7-7-|-5--5-5-5-5-|-4--4-4-4-4-|-2--2-2-2-2||
A||----|----|----|----|------------|------------|------------|-----------||
E||-5--|-5--|-5--|-5-5|------------|------------|------------|-----------||
CHORUS
G||--------------|--------------|-----------------|----------------||
D||--------------|--------------|-----------------|----------------||
A||------------7-|-5-5-5-5-5----|-8-8-8-8-8-8-8-8-|----------------||
E||-0-0-0-0-0----|------------7-|-----------------|-8-8-8-8-8-8-8-8|| X4

G||--------|--------|--------|--------|--------|--------|--------|--------||
D||--------|--------|--------|--------|-7-7-7-7|-5-5-5-5|-4-4-4-4|-2-2-2-2||
A||--------|--------|--------|-3-3----|--------|--------|--------|--------||
E||-5---5--|---3--5-|-5-----5|-----5-3|--------|--------|--------|--------||
X2

VERSE #2
G ||--------|--------|--------|--------|--------|--------|--------|-------||
D4||--------|--------|--------|--------|--------|--------|--------|----7--||
A4||--------|--------|--------|--------|--------|--------|--------|5-7---7||
E ||-5---5--|------0-|--3---3-|------0-|-2---2--|-2-2-3-2|-0----0-|-------|| X2

G ||--------|--------|--------|--------|--------|--------|--------|-------||
D4||--------|-----5--|--------|--------|--------|--------|--------|----7--||
A4||--------|-7------|--------|--------|--------|--------|--------|5-7---7||
E ||-5---5--|------0-|--3---3-|------0-|-2---2--|-2-2-3-2|-0----0-|-------|| X2

G ||--------|--------|--------|--------|--------|--------|--------|-------||
D4||--------|--------|--------|--------|--------|--------|--------|----7--||
A4||--------|--------|--------|--------|--------|--------|--------|5-7---7||
E ||-5---5--|------0-|--3---3-|------0-|-2---2--|-2-2-3-2|-0----0-|-------|| X2

G ||--------|--------|--------|--------|--------|--------|--------|-------||
D4||--------|--------|--------|--------|--------|--------|--------|----7--||
A4||--------|--------|--------|--------|--------|--------|--------|5-7---7||
E ||-5-5-5-5|------0-|-3-3-3-3|--------|-2-2-2-2|-2-2-3-2|-0-0--0-|-------||

                                                      (Play these bars X2)
G ||---------|------|--------|------|---------|--------|--------|-------||
D4||---------|------|--------|------|---------|--------|--------|-------||
A4||---------|------|--------|------|---------|--------|--------|-------||
E ||-5-5-5-5-|------|3-3-3-3-|------|-2-2-2-2-|2-2-3-2-|0-0-0-0-|0-0-0-0||
CHORUS
G ||--------------|--------------|--------|--------|--------|--------||
D4||--------------|--------------|--------|--------|--------|--------||
A4||------------7-|-5-5-5-5-5----|-8-8-8-8|-8-8-8-8|--------|--------||
E ||-0-0-0-0-0----|------------7-|--------|--------|-8-8-8-8|-8-8-8-8|| X4
MIDDLE
G------|------|-----------|-----------|--------|----------|--------|---------|
D------|------|-----------|-----------|--------|----------|--------|---------|
A------|------|-X-10-10-10|10-10-10-10|--------|-10-10----|--------|---------|
E00-00-|-00-00|-----------|-----------|-8-8-8-8|-------8-8|-7-7-7-7|-7-7-7-7-|
CHORUS
G||--------------|--------------|--------|--------|--------|--------||
D||--------------|--------------|--------|--------|--------|--------||
A||------------7-|-5-5-5-5-5----|-8-8-8-8|-8-8-8-8|--------|--------||
E||-0-0-0-0-0----|------------7-|--------|--------|-8-8-8-8|-8-8-8-8|| X4
OUTRO
G ||--------|--------|--------|--------|
D4||--------|--------|--------|--------|
A4||-8-8-8-8|-8-8-8-8|--------|--------|
E ||--------|--------|-8-8-8-8|-8-8-8-8| X2

G ||--------------||
D4||--------------||
A4||------------7-||
E ||-0-0-0-0-0----||
SLEEPWALKING CAPSULES
G|---------------------------------|
D|-------------------------7777555-|
A|-33------------------7777--------|
E|-------33----33555555------------| VERSE (4x)


G|----------------------------------|
D|--------------5-------------------|
A|---------55557-703333333333333333-|
E|-00000000-------------------------| CHORUS (2x)

G|----------------------------------|
D|--------------5------------555----|
A|---------55557-703333333333-------|
E|-00000000---------------------333-| CHORUS VARIATION
VERSE (4x)
CHORUS (4x)
G|--------------------------|
D|----7---------------------|
A|-----5h7---7-7------------|
E|-5~-----0~-----3~-3~-2h3~-| BRIDGE PART 1 (7x)

G|-----------------------|
D|-----------------------|
A|--------------------4~-|
E|-6-5-3-/6-2---6-5-3----| BRIDGE PART 2 (1x)
VERSE (4x)
CHORUS (6x)
G|----|
D|----|
A|----|
E|-0~-| END
INVALID LETTER DEPT.
INTRO
G|-----------------------|      |-----------------------|
D|-----------------------|      |------4----------------|
A|-2~-----/5~------------|      |-2~-----/5~------------|
D|-----------5~-5555-555-| (2x) |-----------5~-5555-555-|

G|-----------------------|
D|------4----------------|
A|-2~-----/5~------------|
D|-----------5~-55555555-|
VERSE (3x)
G|-------|      |-------------------|
D|-------|      |-------------------|
A|----5~-|      |-22222222/77775555-|
D|-0~----| (4x) |-------------------|
CHORUS (2x)
G|--------|      |------------------|
D|--------|      |------------------|
A|-(5)245-|      |------------------|
D|--0-----| (4x) |-5555555544447777-|

G|-----------------------|-----------------------|
D|-----------------------|-----------------------|
A|-2~-----/5~------------|-2~-----/5~------------|
D|-----------5~-5555-555-|-----------5~-55555555-|
VERSE (3x)
CHORUS (4x)
BRIDGE
G|--------------------------------------------|
D|--------------------------------------------|
A|-2~-----/5~---------------------------------|
E|-----------5~-5555-555-0~--------5~---------|

G|--------------------------------------------|
D|------4-------------------------------------|
A|-2~-----/5~---------------------------------|
E|-----------5~-5555-555-0~--------5~---------|

VERSE (3x)
CHORUS (3x)

G|------|      |---|
D|------|      |---|
A|--245-|      |-2-|
D|-0----| (4x) |---|

END (5x)
G|-------------------------------------------------------------------|
D|-------------------------------------------------------------------|
A|-222202-02-2-02----------------------------------------------------|
D|----------------2-555545-45-5-45~-2-2-2222-22222-5555555555555555--|

G|---|
D|---|
A|-2-|
D|---|
MANNEQUIN REPUBLIC
Riff 1 (:05)
G|--------|
D|--------|
A|--------|
E|-0-0-0--|

Riff 2 (:15)
G|----------------------------------------|
D|----------9-----------------------------|
A|-2/777777-------------------55----------|
E|-------------7777--8888--66-------------|

Riff 3 (1:10)
G|-------------------------|
D|-------------------------|
A|-10-777-12-12-9-555-00---|
E|-------------------------|

Riff 4 (1:29)
G|---------------|
D|-2-----0---0---|
A|---0-2---2-----|
E|---------------|

Riff 5 (1:48)
G|---------------------|
D|-22-00---------------|
A|-------33-22-00-22---|
E|---------------------|
ENFILADE
Riff 1 (:43)
G|-------------------------------------------|
D|-------------------------------------------|
A|-0h2-2222222222222-7777-55555555-----------|
E|---------------------------------555-333---|

Riff 2 (1:28)
G|-----------------------------------|
D|-----------------------------------|
A|-2-2-22-2-2-2-777-5-5-55-5-5-5-000-|
E|-----------------------------------|

Riff 3 (1:39)
G|--------------------------------------|
D|--------------------------------------|
A|-2222222------------------7777-555----|
E|---------3333333-00000000-------------|
Riff 4 (2:58)
G|---------------|
D|---------------|
A|-22x22x2222----|
E|---------------|

Riff 5 (3:20)
G|-----------------------------------------------------------------------|
D|-----------------------------------------------------------------------|
A|22-2-22-2-22-2-9999-55-5-55-5-55-0------22-2-22-2-22-2-----------------|
E|-----------------------------------55-33---------------043-333333-0000-|

End on:
G|------|
D|------|
A|-2----|
E|------|

ROLODEX PROPAGANDA
Intro (0:00)
----|
----| once
----|
55--|

Verse (0:01)
----------------|
----------------| 8 times
-------3333-----|
5553333----3335-|

Prechorus
------------2-------------------|
33-33-33-33--42----------------0| 4 times
---------------433-33-22-222023-|
--------------------------------|
Rest
Chorus
--------------------------------|
--------------------------------| 4 times
------------------------33333333|
111111110000000055555555--------|
Rest
Verse X8
Prechorus X4
Chorus X4
Rest
Intro
Verse X4
QUARANTINED
Intro

G| ---------------------------------------------------|
D| ----------5h7-5------------------------------------|
A| -5-6-7--------------------5-6-7-------------7-5-7--|
E| --------0-------0-5-6-7-0-------0-3-0-3-3-0--------|

G| --------------------------------------------------------|
D| ----------5h7-5-----------------------------------------|
A| -7-5-7--------------------5-6-7-------------7-5-7-------|     play 4 times
E| --------0-------0-5-6-7-0-------0-3-0-3-3-0-------------|
Rest
Verse:
G| ---------------------------------------------|
D| ---------------------------------------------|
A| ---------7-7-7-5-7-7-7---------3-3-3-3-3-3-3-|     play 5 times
E| -0--0--0---------------5--5--5---------------|

Chorus - play 4 times
G| --------------------------------------------------------------|
D| ------------------------5-5-5-5---------5-5-5-5---------------|
A| --------------------------------5-5-5-5---------3-3-3-2-3-3-3-|
E| -0-0-0-0-0-0---0-0-0-0----------------------------------------|
Repeat Intro twice
G| ---------------------------------------------------|
D| ----------5h7-5------------------------------------|
A| -5-6-7--------------------5-6-7-------------7-5-7--|
E| --------0-------0-5-6-7-0-------0-3-0-3-3-0--------|

G| ---------------------------------------------------|
D| ----------5h7-5------------------------------------|
A| -7-5-7--------------------5-6-7-------------7-5-7--|
E| --------0-------0-5-6-7-0-------0-3-0-3-3-0--------|

Repeat Verse 4 times
G| ---------------------------------------------|
D| ---------------------------------------------|
A| ---------7-7-7-5-7-7-7---------3-3-3-3-3-3-3-|
E| -0--0--0---------------5--5--5---------------|

Chorus 4 times
G| --------------------------------------------------------------|
D| ------------------------5-5-5-5---------5-5-5-5---------------|
A| --------------------------------5-5-5-5---------3-3-3-2-3-3-3-|
E| -0-0-0-0-0-0---0-0-0-0----------------------------------------|

Bridge - play 5 times
G| -----------/12------------------------------------|
D| ---------9----------------------------------------|
A| ----9-10---------------9--10-9-7--------7---------|
E| -12-------------7-9-10------------5-7-8----0-3-5--|

Play verse 4 times until end (over lyrics to chorus)
G| ---------------------------------------------|
D| ---------------------------------------------|
A| ---------7-7-7-5-7-7-7---------3-3-3-3-3-3-3-|
E| -0--0--0---------------5--5--5---------------|

Cosmonaut
Intro X2
G|-----------------|-----------------------------------------|
D|-----------------|-----------------------------------------|
A|-----------------|-----------------------------------------|
E|-0000000000000000|-10101010101010101010101010101010|-------|

G|-----------------|-----------------------------------------|
D|-----------------|-----------------------------------------|
A|-----------------|-----------------------------------------|
E|-3333333333333333|-5555555555553535------------------------|
Verse X2
G|----------------------------|-------------------------------|
D|----------------------------|-------------------------------|
A|----------------------------|-------------------------------|
E|12-12--1212121212-1212121212|-10-10--1010101010--1010101010-|

G|-----------------|---------------------------------------|
D|-----------------|---------------------------------------|
A|-----------------|---------------------------------------|
E|--333333333333333|-5555555555553535----------------------|

Chorus X2
G|---------------|--------------|----------------------------------|
D|---------------|--------------|----------------------------------|
A|---------------|--------------|----------------------------------|
E|-8--8888--88888|-0-00000-00000|-10101010101010101010101010101010-|

Intro X2
Verse X2
Chorus X2


After Chorus
G|------|
D|------|
A|------|
E|--10--|
Chorus #2 X2
G|------------------|--------------------------------------|
D|------------------|--------------------------------------|
A|------------------|--------------------------------------|
E|-00-000-1010101010|-77777-55555--------------------------|
Verse #2  X2
G|-------------------------|-------------------------------|
D|-------------------------|-------------------------------|
A|-------------------------|-------------------------------|
E|00000000-1010101010101010|-77777777-55555555-------------|
Chorus #2 X2

Non-zero Possibility
|-------------------------------------|
D|---------------------------------9~-|
A|---------7-7-7-7-5-5-5-5------10~---|
D|-7-7-7-7-----------------5/10~------| 2x

G|-------------------------|
D|-------------------------|
A|-2~----0~----------------|
D|-------------5~----0~----| 1x

G|-----------------------------------|
D|-----------------------------------|
A|-5-5-4-2~---2/9~---10~---10~5~-----|
D|-----------------------------------| 2x

G|-------------------------------|
D|-------------------------------|
A|-5-5-4-2~----0~----------------|
D|-------------------5~----0~----| 1x

G|-----------------------------------------------|
D|-7-----9-7------9-7-----9-7---------9~---------|
A|---7--------7-7-----5-5--------9h10~--7h8-8h10-|
D|--9-10----------------------10~----------------| 4x

G|----|
D|----|
A|----|
D|-9~-| END.

            
            
Suggest correction
Creating personal tab
Creating personal tab
You can edit any tab online and save it as your Personal.

You can edit, replace or remove any tab part or add personal notes – all changes will be seen only by you.

Personal tabs can be accessed anytime from any device, even offline.
Learn more »
comments
print report bad tab
guest
You may want to rate the tab now too:
select rating
Wanna post a correction for this tab? Suggest correction