Oops, an error
Loading. Please wait.
We have an official Blinded By Fear tab made by UG professional guitarists. Check out the tab »
×
3,237 views 1 this week
1 commentread comment
1 2 3 4 5
1 last vote to show rating
add to favorites
×
Save as Personal and add changes to this tab that will be seen only by you. Learn more ›
×
You can save this tab as Personal to edit and correct it or add notes. All changes will be seen only by you. Learn more »
launch autoscroll
font size
0
reset
guitar tuner
backing track
0:00
0:00
edit
Autoscroll
slow
fast
+/-
esc
set tempo
stop
Tabbed by Tiku-Orava

I haven't seen a correct verse bass riff anywhere on the net. All of those are the 
same as the guitar riff but it is not like that.


Opening Riff
|-------------|
|-------------|
|-3-2---------|
|-------3-2---|

Verse Riff
|----------------------------------|
|----------------------------------|
|-7777777777777777-----------------|
|-----------------8888888877777777-|

Prechorus
|----------------------------------------------|
|----------------------1-----------------------|
|---------------2-----------------------2---1--|
|-0-0-0-0----2h3----2h3---0-0-0-0----2h3--0----|

Chorus
|--------------------------------------------------------
|----------------9--------8-----------------9--------8---
|----------7--------7-----------------7--------7---------
|-00000000-----------------00000000----------------------

continuation of chorus riff 1st time
-------------------------------------------------------|
----------------9--------8-----------------9-----------| 
----------7--------7-----------------7--------6-9------|
-00000000------------------00000000--------------------|

fill for 2nd time
|-------------------|
|-------------------|
|----------3-2------|
|-00000000------3-2-|

Acoustic Part
|-----------------------------------------------------------------|
|-----------------------------------------------------------------|
|-------------5---4----------------------------3---2--------------|
|-3-----5-6------------------------1-----3-4----------------------|

Solo (basicly the verse riff)
|----------------------------------|
|----------------------------------|
|-7777777777777777-----------------|
|-----------------8888888877777777-|

Solo continued (Backing riff is played under this)
|--------------------------------------------------------------------|
|--------------------------------------------------------------------|
|----------------------------------------------------------3-2-------|
|-00000000000000008888888888888888555555555555555533333333------3-2--|

            
            
Suggest correction
Creating personal tab
Creating personal tab
You can edit any tab online and save it as your Personal.

You can edit, replace or remove any tab part or add personal notes – all changes will be seen only by you.

Personal tabs can be accessed anytime from any device, even offline.
Learn more »
Give kudos to tab author, rate the tab!
1 2 3 4 5
comments
print report bad tab
1 comment total.
0 reply
Tiku-Orava 83 Jun 08, 2010 06:50 AM

Just noticed that this tab is horribly wrong. Uploading new in a moment.

guest
Wanna post a correction for this tab? Suggest correction