Oops, an error
Loading. Please wait.

The Dying tab

version 2
version 2

Whole song

Interactive

916 views 1 this week
2 commentsread comments
1 2 3 4 5
x 4
add to favorites
×
Save as Personal and add changes to this tab that will be seen only by you. Learn more ›
×
You can save this tab as Personal to edit and correct it or add notes. All changes will be seen only by you. Learn more »
launch autoscroll
font size
0
reset
how to read this tab
guitar tuner
edit
Autoscroll
slow
fast
+/-
esc
set tempo
stop
Author
Difficulty
The Dying as played on the reisssued version of Slaughter of the soul.

Riff A play twice

b|-------------------------------------------|
G|-------------------------------------------|
D|-------------------------------------------|
A|-2---5---2---4----2---5---2---4------------|
E|-2---3---2---2-4~-2---3---2---2-6~---------|
B|-0---0---0-----2~-0---0---0-----2~---------|


Riff B  play twice

b|-------------------------------------------|
G|-------------------------------------------|
D|-------------------------------------------| Guitar I
A|---------5-7-9-7-5--7-9----------9~--------|
E|-9-10-----------------------9-10-----------|
B|------7~----------------10~----------------|
P.M.                             .


b|-----------------------------------------------------|
G|-----------------------------------------------------|
D|-----------------------------------------------------| Guitar II
A|-----------------------------------------------------|
E|---------------------------------------------6-------|
B|---0-000-0-0-0-3-333-3-333-5-555-5-555-7-777---7-5~--|
P.M.   ... . . .   ...   ...   ...   ...   ...  . 


Riff b1


b|--------------------------------------------------|
G|--------------------------------------------------|
D|--------------------------------------------------| Guitar I
A|--------------7h9-------9h10------------------9~--|
E|-9h10------------------------------------9-10-----|
B|------7-7-777----8-8-888----10-10-101010----------|
 P.M.   . . ...    . . ...    .  .  . . .    .


b|-------------------------------------------------|
G|-------------------------------------------------|
D|-------------------------------------------------| Guitar II
A|-------------------------------------------------|
E|-------------------------------------------------|
B|-0-0-0-0-000-3-3-3-3-333-5-5-5-5-555-7-7-7-7-777-|
PM . . . . ... . . . . ... . . . . ... . . . . ...


b|--------------------------------------------------|
G|--------------------------------------------------|
D|--------------------------------------------------| Guitar I
A|--------------7h9-------9h10----------------------|
E|-9h10------------------------------------9h10-10--|
B|------7-7-777----8-8-888----10-10-101010----------|
 P.M.   . . ...    . . ...    .  .  . . .    


b|-------------------------------------------------|
G|-------------------------------------------------|
D|-------------------------------------------------| Guitar II
A|-------------------------------------------------|
E|-------------------------------------3-333-3-----|
B|-0-0-0-0-000-3-3-3-3-333-5-5-5-5-555-1-111-1-----|
   . . . . ... . . . . ... . . . . ...   ... 

Riff C play twice

b|----------------------------------------------|
G|----------------------------------------------|
D|----------------------------------------------|
A|----------------------------------------------|
E|-------3-2--------------------3-2-------------|
B|-1-1-1-----1-1-4-4-4-4--1-1-1-----1-1-4-4-4-4-|
PM . . . . . . . . . . .  . . . . . . . . . . .

b|-------------------------------------------|
G|-------------------------------------------|
D|-------------------------------------------|
A|-------------------------------------------|
E|-------2-3-------3-4-------2-3-------3-4---|
B|-0-0-0-----1-1-1-----0-0-0-----1-1-1-------|
PM . . . . . . . . . . . . . . . . . . . . 

Riff D

b|-------------------------------------------------|
G|-------------------------------------------------|
D|-------------------------------------------------|
A|-------7s9------10s9s10-------7s9---5s4----------|
E|-------5s7-------8s7s8--------5s7---3s2---4s5s2--|
B|-0-0-0-----0-0-0--------0-0-0-----0-----0-2s3s2--|
PM . . .     . . .        . . .     .     .

b|-----------------------------------------------|
G|-----------------------------------------------|
D|-----------------------------------------------|
A|-------7s9------10s9s10-------7s9---5---4------|
E|-------5s7-------8s7s8--------5s7---3---2---6--|
B|-0-0-0-----0-0-0--------0-0-0-----0---0---0-4--|
PM . . .     . . .        . . .     .   .   .

b|-------------------------------------------------|
G|-------------------------------------------------|
D|-------------------------------------------------|
A|-------7s9------10s9s10-------7s9---5s4----------|
E|-------5s7-------8s7s8--------5s7---3s2---4s5s2--|
B|-0-0-0-----0-0-0--------0-0-0-----0-----0-2s3s2--|
PM . . .     . . .        . . .     .     .

b|-------------------------------------------------|
G|-------------------------------------------------|
D|-------------------------------------------------|
A|-------7s9------10s9s10-------7s9---5s4----------|
E|-------5s7-------8s7s8--------5s7---3s2---6s7s6--|
B|-0-0-0-----0-0-0--------0-0-0-----0-----0-4s5s4--|
PM . . .     . . .        . . .     .     .

Riff C play twice

b|----------------------------------------------|
G|----------------------------------------------|
D|----------------------------------------------|
A|----------------------------------------------|
E|-------3-2--------------------3-2-------------|
B|-1-1-1-----1-1-4-4-4-4--1-1-1-----1-1-4-4-4-4-|
PM . . . . . . . . . . .  . . . . . . . . . . .

b|-------------------------------------------|
G|-------------------------------------------|
D|-------------------------------------------|
A|-------------------------------------------|
E|-------2-3-------3-4-------2-3-------3-4---|
B|-0-0-0-----1-1-1-----0-0-0-----1-1-1-------|
PM . . . . . . . . . . . . . . . . . . . . 

Riff D

b|-------------------------------------------------|
G|-------------------------------------------------|
D|-------------------------------------------------|
A|-------7s9------10s9s10-------7s9---5s4----------|
E|-------5s7-------8s7s8--------5s7---3s2---4s5s2--|
B|-0-0-0-----0-0-0--------0-0-0-----0-----0-2s3s2--|
PM . . .     . . .        . . .     .     .

b|-----------------------------------------------|
G|-----------------------------------------------|
D|-----------------------------------------------|
A|-------7s9------10s9s10-------7s9---5---4------|
E|-------5s7-------8s7s8--------5s7---3---2---6--|
B|-0-0-0-----0-0-0--------0-0-0-----0---0---0-4--|
PM . . .     . . .        . . .     .   .   .

b|-------------------------------------------------|
G|-------------------------------------------------|
D|-------------------------------------------------|
A|-------7s9------10s9s10-------7s9---5s4----------|
E|-------5s7-------8s7s8--------5s7---3s2---4s5s2--|
B|-0-0-0-----0-0-0--------0-0-0-----0-----0-2s3s2--|
PM . . .     . . .        . . .     .     .

b|-------------------------------------------------|
G|-------------------------------------------------|
D|-------------------------------------------------|
A|-------7s9------10s9s10-------7s9---5s4----------|
E|-------5s7-------8s7s8--------5s7---3s2---6s7s6--|
B|-0-0-0-----0-0-0--------0-0-0-----0-----0-4s5s4--|
PM . . .     . . .        . . .     .     .

Riff B

play twice
b|-------------------------------------------|
G|-------------------------------------------|
D|-------------------------------------------| Guitar I
A|---------5-7-9-7-5--7-9---------9~---------|
E|-9-10-----------------------9-10-----------|
B|------7~----------------10~----------------|
P.M.                             .


b|-----------------------------------------------------|
G|-----------------------------------------------------|
D|-----------------------------------------------------| Guitar II
A|-----------------------------------------------------|
E|---------------------------------------------6-------|
B|---0-000-0-0-0-3-333-3-333-5-555-5-555-7-777---7-5~--|
P.M.   ... . . .   ...   ...   ...   ...   ...  . 


Riff b1

 
b|--------------------------------------------------|
G|--------------------------------------------------|
D|--------------------------------------------------| Guitar I
A|--------------7h9-------9h10------------------9~--|
E|-9h10------------------------------------9-10-----|
B|------7-7-777----8-8-888----10-10-101010----------|
 P.M.   . . ...    . . ...    .  .  . . .    .


b|-------------------------------------------------|
G|-------------------------------------------------|
D|-------------------------------------------------| Guitar II
A|-------------------------------------------------|
E|-------------------------------------------------|
B|-0-0-0-0-000-3-3-3-3-333-5-5-5-5-555-7-7-7-7-777-|
PM . . . . ... . . . . ... . . . . ... . . . . ...


b|--------------------------------------------------|
G|--------------------------------------------------|
D|--------------------------------------------------| Guitar I
A|--------------7h9-------9h10----------------------|
E|-9h10------------------------------------9h10-12\-|
B|------7-7-777----8-8-888----10-10-101010----------|
 P.M.   . . ...    . . ...    .  .  . . .    


b|-----------------------------------------------|
G|-----------------------------------------------|
D|-----------------------------------------------| Guitar II
A|-----------------------------------------------|
E|-------------------------------------5---4-----|
B|-0-0-0-0-000-3-3-3-3-333-5-5-5-5-555-3---2-----|
   . . . . ... . . . . ... . . . . ...    

Riff A play twice

b|-------------------------------------------|
G|-------------------------------------------|
D|-------------------------------------------|
A|-2---5---2---4----2---5---2---4------------|
E|-2---3---2---2-4~-2---3---2---2-6~---------|
B|-0---0---0-----2~-0---0---0-----2~---------|

Rhythm For Solo

play twice

b|-----------------------------------------------------|
G|-----------------------------------------------------|
D|-----------------------------------------------------| Guitar II
A|-----------------------------------------------------|
E|---------------------------------------------6-------|
B|---0-000-0-0-0-3-333-3-333-5-555-5-555-7-777---7-5~--|
P.M.   ... . . .   ...   ...   ...   ...   ...  . 

 play twice
b|-------------------------------------------------|
G|-------------------------------------------------|
D|-------------------------------------------------| Guitar II
A|-------------------------------------------------|
E|-------------------------------------------------|
B|-0-0-0-0-000-3-3-3-3-333-5-5-5-5-555-7-7-7-7-777-|
PM . . . . ... . . . . ... . . . . ... . . . . ...


Riff D

b|-------------------------------------------------|
G|-------------------------------------------------|
D|-------------------------------------------------|
A|-------7s9------10s9s10-------7s9---5s4----------|
E|-------5s7-------8s7s8--------5s7---3s2---4s5s2--|
B|-0-0-0-----0-0-0--------0-0-0-----0-----0-2s3s2--|
PM . . .     . . .        . . .     .     .

b|-----------------------------------------------|
G|-----------------------------------------------|
D|-----------------------------------------------|
A|-------7s9------10s9s10-------7s9---5---4------|
E|-------5s7-------8s7s8--------5s7---3---2---6--|
B|-0-0-0-----0-0-0--------0-0-0-----0---0---0-4--|
PM . . .     . . .        . . .     .   .   .

b|-------------------------------------------------|
G|-------------------------------------------------|
D|-------------------------------------------------|
A|-------7s9------10s9s10-------7s9---5s4----------|
E|-------5s7-------8s7s8--------5s7---3s2---4s5s2--|
B|-0-0-0-----0-0-0--------0-0-0-----0-----0-2s3s2--|
PM . . .     . . .        . . .     .     .

b|-------------------------------------------------|
G|-------------------------------------------------|
D|-------------------------------------------------|
A|-------7s9------10s9s10-------7s9---5s4----------|
E|-------5s7-------8s7s8--------5s7---3s2---6s7s6--|
B|-0-0-0-----0-0-0--------0-0-0-----0-----0-4s5s4--|
PM . . .     . . .        . . .     .     .

Riff B

play twice
b|-------------------------------------------|
G|-------------------------------------------|
D|-------------------------------------------| Guitar I
A|---------5-7-9-7-5--7-9---------9~---------|
E|-9-10-----------------------9-10-----------|
B|------7~----------------10~----------------|
P.M.                             .


b|-----------------------------------------------------|
G|-----------------------------------------------------|
D|-----------------------------------------------------| Guitar II
A|-----------------------------------------------------|
E|---------------------------------------------6-------|
B|---0-000-0-0-0-3-333-3-333-5-555-5-555-7-777---7-5~--|
P.M.   ... . . .   ...   ...   ...   ...   ...  . 


Riff b1

 
b|--------------------------------------------------|
G|--------------------------------------------------|
D|--------------------------------------------------| Guitar I
A|--------------7h9-------9h10------------------9~--|
E|-9h10------------------------------------9-10-----|
B|------7-7-777----8-8-888----10-10-101010----------|
 P.M.   . . ...    . . ...    .  .  . . .    .


b|-------------------------------------------------|
G|-------------------------------------------------|
D|-------------------------------------------------| Guitar II
A|-------------------------------------------------|
E|-------------------------------------------------|
B|-0-0-0-0-000-3-3-3-3-333-5-5-5-5-555-7-7-7-7-777-|
PM . . . . ... . . . . ... . . . . ... . . . . ...


b|--------------------------------------------------|
G|--------------------------------------------------|
D|--------------------------------------------------| Guitar I
A|--------------7h9-------9h10----------------------|
E|-9h10------------------------------------5---4----|
B|------7-7-777----8-8-888----10-10-101010-3---2----|
 P.M.   . . ...    . . ...    .  .  . . .    


b|-----------------------------------------------|
G|-----------------------------------------------|
D|-----------------------------------------------| Guitar II
A|-----------------------------------------------|
E|-------------------------------------5---4-----|
B|-0-0-0-0-000-3-3-3-3-333-5-5-5-5-555-3---2-----|
   . . . . ... . . . . ... . . . . ...    

riff E1

Played 2 times
b|------------------------------------|
G|------------------------------------|
D|------------------------------------| only guitar I plays this
A|------------------------------------|
E|-------------------------------1----|
B|-000-000-000-000-000-000-3-223------|
Pm ... ... ... ... ... ... . ...


b|------------------------------------|
G|------------------------------------|
D|------------------------------------|
A|------------------------------------| Both Guitars Play This
E|-------------------------------2----|
B|-111-111-111-111-333-333-3-223------|
PM ... ... ... ... ... ... . ...

riff E both guitars

Played 3 times
b|------------------------------------|
G|------------------------------------|
D|------------------------------------| 
A|------------------------------------|
E|-------------------------------1----|
B|-000-000-000-000-000-000-3-223------|
PM ... ... ... ... ... ... . ...

b|------------------------------------|
G|------------------------------------|
D|------------------------------------|
A|------------------------------------| 
E|-------------------------------2----|
B|-111-111-111-111-333-333-3-223------|
PM ... ... ... ... ... ... . ...


Riff H both guitars
Finale

b|----------------------------------------------------------------------|
G|-----------------------------------------------------------------------|
D|-----------------------------------------------------------------------|
A|-----------------------------------------------------------------------|
E|-----------------------------------------------------------------------|
B|-000-000--000-000--000-000--431-301-000-000--000-000--000-000--431-301-|
Pm ... ...  ... ...  ... ...  ... ... ... ...  ... ...  ... ...  ... ...

Riff h1

b|-------------------------------------------------------|
G|-------------------------------------------------------|
D|-------------------------------------------------------|
A|---------9s10--------10s12--------9s10-----------------| 
E|---------7s8----------8s10--------7s8--11-10-8-10-7-8--|
B|-000-000------000-000------000-000---------------------|
PM ... ...      ... ...      ... ...     .  .  . .  . .

b|-------------------------------------------------------|
G|-------------------------------------------------------|
D|-------------------------------------------------------|
A|---------9s10--------10s12--------9s10-----------------| 
E|---------7s8----------8s10--------7s8--11-10-8-10-7-8--|
B|-000-000------000-000------000-000---------------------|
PM ... ...      ... ...      ... ...     .  .  . .  . .

b|-------------------------------------------------------|
G|-------------------------------------------------------|
D|-------------------------------------------------------|
A|---------9s10--------10s12--------9s10-----------------| 
E|---------7s8----------8s10--------7s8--11-10-8-10-7-8--|
B|-000-000------000-000------000-000---------------------|
PM ... ...      ... ...      ... ...     .  .  . .  . .

b|-------------------------------------------------------|
G|-------------------------------------------------------|
D|-------------------------------------------------------|
A|---------9s10--------10s12--------9s10-----------------| 
E|---------7s8----------8s10--------7s8--11-10-8-10-7-8--|
B|-000-000------000-000------000-000---------------------|
PM ... ...      ... ...      ... ...     .  .  . .  . .

Riff H2 Both Guitars, played once
b|-------------------------------------------------|
G|-------------------------------------------------|
D|-------------------------------------------------|
A|-------------------------------------------------|
E|-------------------------------------------------|
B|-000-000------000-000------000-000-----000-000---|
Pm ... ...      ... ...      ... ...     ... ...

            
            
Suggest correction
Creating personal tab
Creating personal tab
You can edit any tab online and save it as your Personal.

You can edit, replace or remove any tab part or add personal notes – all changes will be seen only by you.

Personal tabs can be accessed anytime from any device, even offline.
Learn more »
comments
print report bad tab
2 comments total.
0 reply
NosferatuZodd09 1,248 Sep 07, 2007 06:57 PM

great tab man, i think the second riff after the intro might be a bit wrong same with the power chord riff but not so sure, better than the other tab, thanks! :D

0 reply
bass_emagdnim 200 Sep 24, 2007 05:46 PM

Excellent job! :D

guest
You may want to rate the tab now too:
select rating
Wanna post a correction for this tab? Suggest correction