Oops, an error
Loading. Please wait.

Piece Of Time album tab

version 1
version 1

Album

Interactive

by Atheist
4,360 views 3 this week
no commentswrite comment
1 2 3 4 5
x 4
add to favorites
×
Save as Personal and add changes to this tab that will be seen only by you. Learn more ›
×
You can save this tab as Personal to edit and correct it or add notes. All changes will be seen only by you. Learn more »
launch autoscroll
font size
0
reset
how to read this tab
guitar tuner
edit
Autoscroll
slow
fast
+/-
esc
set tempo
stop
Author
PIECE OF TIME

   INTRO: GUITAR 1

E|---------------15-------------------17-----19-----18--|--------------|
B|--------12-------------------15------------20-----19--|--13----16----|
G|--9-------------------12-------------------16-----15--|--14----17----|
D|------------------------------------------------------|--------------|
A|------------------------------------------------------|--------------|
E|------------------------------------------------------|--------------|
   *  Volume swells w/ slap echo & vibrato after each entry.

E----------------------------------------------------------------------|
B-15-----11----6----4--------------------------------------------------|
G-16-----12----7----5-----2-----(2)------------------------------------|
D-------------------------2-----(2)------------------------------------|
A-------------------------0-----(0)------------------------------------|
E----------------------------------------------------------------------|
                                        *  Bass & drums to Section A.

                                                  SECTION A: BOTH GUITARS

E--------|--------------------------------------||-||------------------|
B--------|--------------------------------------||-||*-----------------|
G--------|--------------------------------------||-||------------------|
D--------|--------------------------------------||-||-------------9--8-|
A--------|---------------------\----------------||-||*--7--------------|
E--------|---------------------\----------------||-||------6--5--------|
                              *  Pick Slide.

E--------------------------------------|-------------------------------|
B--------------------------------------|-------------------------------|
G--------------------------------------|-------------------------------|
D-----------------------9--8-----8-----|------------9--8---------------|
A--7--6-------7---------------7-----6--|--7---------------7--6------7--|
E--------5-------6--5------------------|-----6--5---------------5------|


E|---------------------------------------------------------------------|
B|---------------------------------------------------------------------|
G|---------------------------------------------------------------------|
D|--------9--8-----8------------------7--6-----------------------7--6--|
A|--------------7-----6-----5---------------5--4-------5---------------|
E|-6--5------------------------4--5---------------3-------4--5---------|


E|----------|------------------------------------------------------||--|
B|----------|-----------------------------------------------------*||--|
G|----------|------------------------------------------------------||--|
D|----6-----|------------7--6----------------------7--6-----6------||--|
A|-5-----4--|--5---------------5--4------5---------------5-----4--*||--|
E|----------|-----4--5---------------3------4--5-------------------||--|


E------------------------------------------------------||--------------|
B------------------------------------------------------||--------------|
G------------------------------------------------------||--------------|
D------------6--5-----------------------5--4-----------||--------------|
A--4---------------4--3-------3---------------3--2--3--||--------------|
E-----3--4---------------2-------2--3---------------1--||--------------|


                          SECTION B: BOTH GUITARS (Palm Mute entire second passage)

E-------------------------||--------------------------------------------|
B-------------------------||*-------------------------------------------|
G-------------------------||---9----------------------------------------|
D-------------------------||---7----7--8--7--9---7--8---7--9---7--8---7-|
A-------------------------||*-------------------------------------------|
E-------------------------||--------------------------------------------|
                                    "A blast of light is emerging, a soul prepared to learn..."


E-----------|----------------------------------------------------------|
B-----------|----------------------------------------------------------|
G-----------|--9----------------------------------------------------8--|
D--9--7--8--|--7----7--8--7--9---7--8---7--9--7--8---7--9--7--8-----6--|
A-----------|----------------------------------------------------------|
E-----------|----------------------------------------------------------|
                    "Its' classroom, our earth, enlightenment it yearns..."


E-------------------------------------------------|--------------------|
B-------------------------------------------------|--------------------|
G-------------------------------------------------|--8-----------------|
D---6--7--6--8---6--7---6--8---6--7---6--8--6--7--|--6----6--7--6--8---|
A-------------------------------------------------|--------------------|
E-------------------------------------------------|--------------------|
"Receiving the life and knowledge it deserves..."   "A spectrum of warmth, a soul
 is life-preserved..."

                                       SECTION C: BOTH GUITARS

E|----------------------------------||-----------------------------|
B|---------------------------------*||-----------------------------|
G|----------------------------------||-----------------------------|
D|-6--7---6--8--6--7---6--8--6--7---||-----------------------------|
A|---------------------------------*||---7-7-7-7-7-7-7-7-7-7-6-6-6-|
E|----------------------------------||-----------------------------|

E-------------------------|-----------------------------|
B-------------------------|-----------------------------|
G-------------------------|-----------------------------|
D-------------------------|-----------------------------|
A-------------------------|-7-7-7-7-7-7-7-7-7-7-7-6-6-6-|
E-6-6-6-5-5-5-5-5-5-5-5-5-|-----------------------------|
                                              "Another notch in a cosmic climb..."


E-------------------------------------------------|
B-------------------------------------------------|
G-------------------------------------------------|
D-------------------------------------------------|
A-------------------------6-6-6-6-6-6-6-6-6-5-5-5-|
E-6-6-6-5-5-5-5-5-5-5-5-5-------------------------|
                                           "Reveal our sanity..."

E-------------------------|--------------------------|
B-------------------------|--------------------------|
G-------------------------|--------------------------|
D-------------------------|--------------------------|
A-------------------------|--6-6-6-6-6-6-6-6-6-5-5-5-|
E-5-5-5-4-4-4-4-4-4-4-4-4-|--------------------------|
                                                    "Reveal our plan divine..."

                                             *  Guitar 1 plays top notes as harmony.

E-------------------------------------------------|
B-------------------------------------------------|
G-------------------------------------------------|
D-------------------------9-9-9-9-9-9-9-9-9-8-8-8-|
A-------------------------7-7-7-7-7-7-7-7-7-6-6-6-|
E-5-5-5-4-4-4-4-4-4-4-4-4-------------------------|
                                           "To grasp reality..."


E-------------------------|--------------------------|
B-------------------------|--------------------------|
G-------------------------|--------------------------|
D-------------------------|--9-9-9-9-9-9-9-9-9-8-8-8-|
A-8-8-8-7-7-7-7-7-7-7-7-7-|--7-7-7-7-7-7-7-7-7-6-6-6-|
E-6-6-6-5-5-5-5-5-5-5-5-5-|--------------------------|
                                                      "Is to grasp your biggest fear..."


E-------------------------------------------------|
B-------------------------------------------------|
G-------------------------------------------------|
D-------------------------8-8-8-8-8-8-8-8-8-7-7-7-|
A-8-8-8-7-7-7-7-7-7-7-7-7-6-6-6-6-6-6-6-6-6-5-5-5-|
E-6-6-6-5-5-5-5-5-5-5-5-5-------------------------|
                                               "You see every circumstance..."


E-------------------------|-------------------|
B-------------------------|-------------------|
G-------------------------|-------------------|
D-------------------------|-8-8-8-8-8-8-8-8-8-|
A-7-7-7-6-6-6-6-6-6-6-6-6-|-6-6-6-6-6-6-6-6-6-|
E-5-5-5-4-4-4-4-4-4-4-4-4-|-------------------|
                                           "Is very meant to be..."

                                               SECTION D: BOTH GUITARS

E-------------------------------||----------------------|
B-------------------------------||*---------------------|
G-------------------------------||----------------------|
D-7-7-7-------------------------||----------------------|
A-5-5-5-7-7-7-6-6-6-6-6-6-6-6-6-||*------------------8--|
E-------5-5-5-4-4-4-4-4-4-4-4-4-||---0-0-0-0-0-0-0-0----|

E---------------------------------------|--------------------------------|
B---------------------------------------|--------------------------------|
G---------------------------------------|--------------------------------|
D---------------------------------------|--------------------------------|
A--7-----6--5--------------------4------|------------------6--5----------|
E-----8--------0-0-0--0-0-0--6-------2--|-3-3-3-3-3-3-3-3---------0--0---|


                                  SECTION E: BOTH GUITARS

E------------------------------||-||-----------------------------------|
B-----------------------------*||-||*----------------------------------|
G------------------------------||-||-----------------------------------|
D------------------------------||-||-----------------------------------|
A-----4--3-----------------1--*||-||*----------------------------------|
E--6--------0-0-0--0-0--3------||-||---0---0--3-3-3--2-2-2--6-6-6--5-5-|
                           3x                 "Is your life not the life thay you want it to be?"

E--------------------------|--------------------------------------------|
B--------------------------|--------------------------------------------|
G--------------------------|--------------------------------------------|
D--------------------------|--------------------------------------------|
A-------------------6---7--|--------------------------------------------|
E-5--8-8-8--7---8----------|-0--0--3-3-3--2-2-2--6-6-6--5-5-5--8-8-8--7-|
                            "Your soul is young, it lacks response to the things that you see..."


       *  Guitar 1 plays ( ). SECTION F: BOTH GUITARS (Guitar 1 plays high notes)

E-----------------------||-||--------------------------------------------|
B----------------------*||-||*-------------------------------------------|
G-----------------------||-||--------------------------------------------|
D-----------------------||-||---------------------------8-8-8--7-7-7--10-|
A-------6-(9)--7-(10)--*||-||*--7---7--10-10-10--9-9-9-------------------|
E---8-------------------||-||---0---0---3--3--3--2-2-2--6-6-6--5-5-5---8-|
                 3x                    "Some must learn the hard way, but that's what they need..."

E------------------------|-----------------------------------------------|
B------------------------|-----------------------------------------------|
G-----------------8---9--|-----------------------------------------------|
D-10-10--9---10----------|------------------------8-8-8--7-7-7--10-10-10-|
A-----------------6---7--|-7--7--10-10-10--9-9-9-------------------------|
E--8--8--7----8----------|-0--0---3--3--3--2-2-2--6-6-6--5-5-5---8--8--8-|
                              "When all is learned in this life, your soul will proceed..."

                        SECTION G: GUITAR 1

E--------------------||------------------------------------------------|
B-----------7---8---*||------------------------------------------------|
G--------------------||--14-12-11-----------------12-11-10-------------|
D--9---10------------||-----------14-12-11-----------------12-11-10----|
A-----------6---7---*||--------------------14-12--------------------12-|
E--7----8------------||------------------------------------------------|

E------------------------------------|----------------------------------|
B------------------------------------|----------------------------------|
G-----11-9-7-------------------------|--7-6--------------6--------7-6---|
D------------11-9-7--------4---------|------7-6------6-7---7----------7-|
A-10----------------11-9\--4---------|----------9-----------------------|
E--------------------------2---------|-----------------------9----------|

                          SECTION G: GUITAR 2

E-------------------------------------------------------------------|--|
B-------------------------------------------------------------------|--|
G------------6------------------------------------------------------|--|
D-6------6-7---7\-4--------7---------5---------4----------4---------|--|
A-----------------4--------7---------5---------4----------4---------|--|
E---7-------------2--------5---------3---------2----------2---------|--|

                                                          SECTION H: GUITAR 1

E----------------------------------------------------------17-15-14----|
B-------------------------------------------------------------------17-|
G-7-6--------------6--------7-6--------------6-------------------------|
D-----7-6------6-7---7----------7-6------6-7---7\-4--------------------|
A---------9---------------------------------------4--------------------|
E----------------------9------------7-------------2--------------------|

E--------------15-14-12-----------------9-10-12-10-9-------------------|
B-15-14-----------------15-14-12---------------------12-10-9-----------|
G-------16-14--------------------14-12-----------------------11--6-7-9-|
D----------------------------------------------------------------------|
A----------------------------------------------------------------------|
E----------------------------------------------------------------------|

                                                       SECTION H: GUITAR 2

E-------------------||-------------------------------------------------|
B-------------------||-------------------------------------------------|
G-7-6---------------||-------------------------------------------------|
D-----9-7-6---------||----------------------------------7---------5----|
A-----------9~--\---||----------------------------------7---------5----|
E-------------------||----------------------------------5---------3----|

                                                                   LEAD 1: GUITAR 1

E-------------------------------||--------------------------------------|
B-------------------------------||--------------------------------------|
G-------------------------------||--------------------------------------|
D------4------------------------||----------------------------------11--|h
A------4------------------------||--------------------------------------|
E------2------------------------||--------------------------------------|

E-----------------------------------------------------------------------|
B-----------------------------------------------------------------------|
G-----------------------------------------------------------------------|
D-12-11-----11h12-11-----11h-12--11-------------------------------------|
A-------14-----------14-------------------11h-12-11------11h--12--------|
E------------------------------------14--------------14------------14---|

E----|-------------------------------------------------------------------|
B----|-------------------------------------12h-14--17--17b19--------(19)-|
G----|-----------------------------11h-14--------------------------------|
D----|---------------------11h-14----------------------------------------|
A----|-------11h--12-----------------------------------------------------|
E----|--14-------------14------------------------------------------------|

E------------r--14h17-14----14--19p14----14--17p14----14---------------|
B-----17b19--------------17-----------17-----------17-----17p14----14--|
G---------------------------------------------------------------16-----|
D----------------------------------------------------------------------|
A----------------------------------------------------------------------|
E----------------------------------------------------------------------|

E-------------------------------|--------------------------------------|
B-------------------------------|--------------------------------------|
G-16p14----14--16b18------(18)--|--------------------------------------|
D-------16----------------------|--11h12-11--------11------------------|
A-------------------------------|-----------14p12-------14---12---11---|
E-------------------------------|--------------------------------------|

E-----------------------------------------------------------------------|
B-----------------------------------------------------------------17b19-|
G-----------------------------------------------------------------------|
D-12---11----------------------------------------------14---------------|
A-----------12---11---14--------------------14--------------------------|
E--------------------------------14-------------------------------------|

E-------------|--------------17--14h17-14--14h19-14--14h17-14-----------|
B-------------|-14p17-14-14------------------------------------14h17-14-|
G-------------|---------------------------------------------------------|
D-------------|---------------------------------------------------------|
A-------------|---------------------------------------------------------|
E-------------|---------------------------------------------------------|

E-----------------------------------------------------------------------|
B-----------------------------------------------------------------------|
G--14h16-14--16b18------------------------------------------------------|
D--------------------------------------------------------12-------------|
A-----------------------------------------------12-14-16----16-14-12----|
E-----------------------------14-15-14-12-14-15----------------------16-|

E---------------------------------------------------------------|------|
B---------------------------------------------------------------|------|
G---------------------------------------------------------------|------|
D-------------14----------------16-14----------------14-16------|------|
A-12-14-16-17----17-16-14-16-17-------17-16-14-16-17------------|------|
E---------------------------------------------------------------|------|


                                                                      LEAD 1 RHYTHM: GUITAR 2

E------------------------------------------------------------------||-||--|
B-------------------------------------15-17-17b19----------(19)----||-||*-|
G----------------------------14-16-18------------------------------||-||--|
D----(16)-----14-16-17-16-17---------------------------------------||-||--|
A------------------------------------------------------------------||-||*-|
E------------------------------------------------------------------||-||--|

E------------------------------------------------------------|---------|
B------------------------------------------------------------|---------|
G------------------------------------------------------------|---------|
D------------------------------------------------------------|---------|
A------------------------------------------------------------|---------|
E--5---5-5-5--5---5-5-5--5-5-5---3--3-3-3--3---3-3-3--3-3-3--|--2--2-2-|


                                                       SECTION I: BOTH GUITARS

E|----------------------------------------------------||---------------|
B|---------------------------------------------------*||---------------|
G|----------------------------------------------------||---7-6---------|
D|----------------------------------------------------||-------7-6-----|
A|---------------------------------------------------*||-----------9---|
E|-2--2---2-2-2--2---2-2-2--2---2-2-2--2-2-2--2-2-2---||---------------|
                                                  4x


E---------------------------------------------|------------------------|
B---------------------------------------------|------------------------|
G------6--------7-6--------------6------------|---9--------------------|
D--6-7---7----------7-6------6-7---7\-4-------|------------------------|
A-------------------------------------4-------|------------------------|
E----------9------------7-------------2-------|---0--------------------|
                                                  *  Guitar 1 plays top note.

                 BRIDGE: BOTH GUITARS

E----------------------------------------------------------------------|
B----------------------------------------------------------------------|
G-----------------------------------------------------------------<5>--|
D-----------------9--8---7---------------------------<5>---------------|
A-----------------7--6---5----8--7-----<12>----------------------------|
E-----------------------------6--5-------------------------------------|
     *  Repeat Sections A & C.         *  Bass plays harmonics.


                SECTION J: BOTH GUITARS                            SECTION K:  BOTH GUITARS

E---------------||----------------------------------------------||-||--|
B---------------||*--------------------------------------------*||-||*-|
G----3---3---3--||----------------------------------3---3---3---||-||--|
D----3---3---3--||----2-------------(2)-------------3---3---3---||-||--|
A----1---1---1--||*---2-------------(2)-------------1---1---1--*||-||*-|
E---------------||----0-------------(0)-------------------------||-||--|
                                    "Piece of time..."      4x

                                                               LEAD 3 RHYTHM: GUITAR 2

E-----------------------------------------------------------||-||-------|
B----------------------------------------------------------*||-||*------|
G---------------------------------------------3----3----3---||-||-------|
D---------------------------------------------3----3----3---||-||-------|
A---------------------------------------------1----1----1--*||-||*------|
E--0-0-0--0-0-0--0-0-0--0-0-0--0-0-0--0-0-0-----------------||-||---2-2-|
   "Here we stand in a hallway with nothing but open doors..." 4x

                                                           GUITAR 2:

E|------------------------------------------------------||--------------|
B|-----------------------------------------------------*||--------------|
G|----------------------------------------5----5----5---||--------------|
D|----------------------------------------5----5----5---||--------------|
A|----------------------------------------3----3----3--*||--------------|
E|-2--2-2-2--2-2-2--2-2-2--2-2-2--2-2-2-----------------||---2-2-2--2-2-|
                                                    7x

                                               END:  BOTH GUITARS

E|-----------------------------------------------||---------------------|
B|-----------------------------------------------||*--------------------|
G|---------------------------------3----3----3---||---------------------|
D|---------------------------------3----3----3---||---------------------|
A|---------------------------------1----1----1---||*--------------------|
E|-2--2-2-2--2-2-2--2-2-2--2-2-2-----------------||---0-0-0--0-0-0--0-0-|


E|----------------------------------------||---------------------------|
B|---------------------------------------*||---------------------------|
G|--------------------------3----3----3---||---3-----3-----3-----------|
D|--------------------------3----3----3---||---3-----3-----3-----------|
A|--------------------------1----1----1--*||---1-----1-----1-----------|
E|-0--0-0-0--0-0-0--0-0-0-----------------||---------------------------|
                                      4x

*****************************************************************************

UNHOLY WAR

 SECTION A: BOTH GUITARS

E|----------------------------------------------------------------|-----|
B|----------------------------------------------------------------|-----|
G|--------------------7-7-7-------6-6-6---------------------------|-----|
D|----7-----6---6-6-6-------5-5-5-----------7-----6---------------|-----|
A|-6--5--5--4----------------------------6--5--5--4---------5-5-5-|-----|
E|-4-----3-------------------------------4-----3------4-4-4-------|-3-3-|
                *  Bass                               *  Bass

                                                               SECTION B: BOTH GUITARS

E|-------------------------------------------------------------||-------|
B|-------------------------------------------------------------||*------|
G|-------------------------------------------------------------||-------|
D|--------------7-----6-------------------------------7-----6--||-------|
A|---4-4-4---6--5--5--4---------5-5-5-------4-4-4--6--5--5--4--||*------|
E|-3---------4-----3------4-4-4-------3-3-3--------4-----3-----||---2-2-|
                          *  Bass                      "Enter this thought in your mind..."


E|----------------------------------------------------------------|-----|
B|----------------------------------------------------------------|-----|
G|----------------------------------------------------------------|-----|
D|----------------------------------------------------------------|-----|
A|---------3-3-2-2-2-2-----------------------3-3-2-2-2-2----------|-----|
E|-2-2-2-2-------------5-5-3-0--2-2-2-2-2-2--------------5-5-3-0--|-2-2-|
                                                                    "We all were put 
for mankind..."

                                                           SECTION C: BOTH GUITARS (w/bass parts)

E|------------------------------------------------------||-------------|
B|-----------------------------------------------------*||-------------|
G|------------------------------------------------------||-------------|
D|------------------------------------------------------||-------------|
A|----------3-3-2-2-2-2-----------4---------4---5------*||-------5-5-5-|
E|-2-2-2-2---------------5-5-3-0--2---------2---3-------||-4-4-4-------|
                                                     4x


E|----------------------------------------------------------|-----------|
B|----------------------------------------------------------|-----------|
G|------------------------------7-7-7-------6-6-6-----------|-------7-7-|
D|----------------7----6--6-6-6-------5-5-5----------7----6-|-6-6-6-----|
A|-------4-4-4--6-5--5-4---------------------------6-5--5-4-|-----------|
E|-3-3-3--------4----3-----------------------------4----3---|-----------|
                "Unholy war..."                    "Taught to pray for..."

                                                               SECTION D: BOTH GUITARS

E|-------------------------------------------------------------||------|
B|-------------------------------------------------------------||*-----|
G|-7-------6-6-6------------------7-7-7-------6-6-6------------||------|
D|---5-5-5----------7----6--6-6-6-------5-5-5----------7----6--||------|
A|----------------6-5--5-4---------------------------6-5--5-4--||*-----|
E|----------------4----3-----------------------------4----3----||---5--|
                  "Plaguing scandal..."              "Unholy war..." "Religion pays in 
ways, education's not a factor..."

E|---------------------------------------------------|-----------------|
B|---------------------------------------------------|-----------------|
G|---------------------------------------------------|-----------------|
D|------------------------------------------------6--|-----------------|
A|-7--8--------6--5h6-5---------7--8--------6--5-----|-----7--8--------|
E|-------7--6------------6---5--------7--6-----------|--5---------7--6-|
                                                        "Sit there brainwashed, 
preaching life and immortality..."

                                              SECTION E: BOTH GUITARS

E|-----------------------------------------||--------------------------|
B|----------------------------------------*||--------------------------|
G|-----------------------------------------||--------------------------|
D|-------------------------------------6---||---9-------9---8-------8--|
A|--6--5h6-5---------7--8--------6--5-----*||-------7-----------9------|
E|------------6---5--------7--6------------||--------------------------|

E|-------------------------|-------------------------------------------|
B|-------------------------|-------------------------------------------|
G|-------------------------|-------------------------------------------|
D|--8-------8---7-------7--|--7-------7---6-------6----6-------6---5---|
A|------7-----------8------|------5-----------7------------5-----------|
E|-------------------------|-------------------------------------------|

E|----------------------------------------------------------|----------|
B|----------------------------------------------------------|----------|
G|----------------------------------------------------------|----------|
D|-----5-----9-------9---8-------8---8-------8---7-------7--|--7-------|
A|-6---------7---7---7---6---9---6---6---7---6---5---8---5--|--5---5---|
E|---------------5-----------7-----------5-----------6------|------3---|
             *  Guitar 1 plays bottom notes.


E|----------------------------------------------------------------------|
B|----------------------------------------------------------------------|
G|--------------------------------------------9-------9---8-------8---8-|
D|-7---6-------6----6-------6---5-------5-----9---7---9---8---9---8---8-|
A|-5---4---7---4----4---5---4---3---6---3---------7-----------9---------|
E|---------5------------3-----------4-----------------------------------|
                                              *  Guitar 1 plays top notes.


E|----------------------|----------------------------------------------|
B|----------------------|----------------------------------------------|
G|-------8---7-------7--|--7-------7---6-------6----6-------6---5------|
D|---7---8---7---8---7--|--7---5---7---6---7---6----6---5---6---5---6--|
A|---7-----------8------|------5-----------7------------5-----------6--|
E|----------------------|----------------------------------------------|

E|---------------------------------------------------||----------------|
B|---------------------------------------------------||----------------|
G|--5------------------------------------------------||----------------|
D|--5-----7-------7----6-------6---5-----------------||----------------|
A|------------5------------7-------------------------||----------------|
E|------------------------------------------x\-------||----------------|


                          SECTION F: GUITAR 2

E|------------------------||-------------------------------------------|
B|------------------------||*------------------------------------------|
G|------------------------||-------------------------------------------|
D|------------------------||-------------------------------------------|
A|------------------------||*--------------3-3-3-4-4-4-5-5-5-5-5-5-4-4-|
E|------------------------||---2-2-2-2-2-2-----------------------------|

E|---------|---------------------------------------------------||-------|
B|---------|--------------------------------------------------*||-------|
G|---------|---------------------------------------------------||-------|
D|---------|---------------------------------------------------||--2----|
A|-4-4-4-4-|-3-3-3-3-3-3-3-3-3-3-3-3--------------------------*||--2--2-|
E|---------|-------------------------2-2-2-3-3-3-5-5-5-3-3-3---||--0--0-|
                                                           4x

                                SECTION G: BOTH GUITARS

E|----------------------------------------------------------------------|
B|----------------------------------------------------------------------|
G|----------------------------------------------------------------------|
D|---------------7--7------------2----5----7----9-----9--8-----8--------|
A|--2--2--5-5-5--5--5--7--6--5---2----5----7-------7--------9-----5-5-5-|
E|--0--0---------------5--4--3---0----3----5----------------------------|

E|----------------|----------------------------------------------------|
B|----------------|----------------------------------------------------|
G|----------------|----------------------------------------------------|
D|--7--7----------|-2----5----7----9-----9--8-----8---------7--7-------|
A|--5--5--7--6--5-|-2----5----7----7--7--7--6--9--6--5-5-5--5--5--7--6-|
E|--------5--4--3-|-0----3----5-------5--------7------------------5--4-|
                                   *  Gtr. 1 plays bottom notes.


E-----------------------------------------------------------|----------|
B-----------------------------------------------------------|----------|
G--------------------9-----9--8-----8-----------------------|----------|
D-----2----5----7----9--7--9--8--9--8---------7--7----------|-2--------|
A--5--2----5----7-------7--------9-----5-5-5--5--5--7--6--5-|-2--------|
E--3--0----3----5-----------------------------------5--4--3-|-0--------|
                     *  Gtr. 1 plays top notes.

                                  SECTION H: BOTH GUITARS (w/bass parts)

E|-----------------------------||--------------------------------------|
B|-----------------------------||--------------------------------------|
G|-----------------------------||--------------------------------------|
D|-----------------------------||----------------------------7----6--6-|
A|-----------------------------||-------5-5-5-------4-4-4--6-5--5-4----|
E|-----------------------------||-4-4-4-------3-3-3--------4----3------|
                    *  Repeat Section B 6x.                "Unholy war..."

E|----------------------------------|----------------------------------|
B|----------------------------------|----------------------------------|
G|-----7-7-7-------6-6-6------------|-------7-7-7-------6-6-6----------|
D|-6-6-------5-5-5----------7----6--|-6-6-6-------5-5-5---------7----6-|
A|------------------------6-5--5-4--|-------------------------6-5--5-4-|
E|------------------------4----3----|-------------------------4----3---|
                          "Taught to pray for..."             "Plaguing scandal..."


E----------------------------------------------------------------------|
B----------------------------------------------------------------------|
G----------------------------------------------------------------------|
D-----------------------------7----6--------7-------6-------7-------6--|
A--------5-5-5-------4-4-4--6-5--5-4----6---5---5---4---6---5---5---4--|
E--4-4-4-------3-3-3--------4----3------4-------3-------4-------3------|

                            "Unholy war..."
E|---------------*-|
B|---------------*-|
G|---------------*-|
D|--2------------*-|
A|--2------------*-|
E|--0------------*-|

*****************************************************************************


ROOM WITH A VIEW

E------------------------------------------||--------------------------|
B------------------------------------------||*-------------------------|
G---------------------------------------||--------------------------|
D------------------------------------------||--------------------------|
A------------------------------------------||*-------------------------|
E------------------------------------------||---5-5-5-5-5-5-5-5--5-5-5-|
  (2.4)                                                 "Lie half-alive in my hospital bed..."

E|---------------------------------------------------------------------|
B|---------------------------------------------------------------------|
G|---------------------------------------------------------------------|
D|---------------------------------------------------------------------|
A|---------------------------------------------------------------------|
E|-5-5-5-5-5--5-5-5-5-3-3-3-3--8-8-8-8-7-7-7-7----4-4-4-4-4-4-4-4--4-4-|
                                                    "Or to some of you, that maybe half-dead..."


                                                    *  Guitar 1 plays top note as harmony.

E|-----------------------------------------------|---------------------|
B|-----------------------------------------------|---------------------|
G|-----------------------------------------------|---------------------|
D|-----------------------------------------------|---------------------|
A|-----------------------------------------------|--7-7-7-7-7-7-7-7--7-|
E|-4-4-4-4-4-4--4-4-4-4-4-4-4--4-4-4-4-4-4-4-4---|--5-5-5-5-5-5-5-5--5-|
                                                            "I.V. machines running to my veins..."


E|----------------------------------------------------------------------|
B|----------------------------------------------------------------------|
G|----------------------------------------------------------------------|
D|----------------------------------------------------------------------|
A|-7-7-7-7-7-7-7--7-7-7-7-5-5-5-5--10-10-10-10-9-9-9-9----6-6-6-6-6-6-6-|
E|-5-5-5-5-5-5-5--5-5-5-5-3-3-3-3---8--8--8--8-7-7-7-7----4-4-4-4-4-4-4-|
                                                                  "Man made life 
my withered remains..."


E|--------------------------------------------------------||------------|
B|-------------------------------------------------------*||------------|
G|--------------------------------------------------------||------------|
D|--------------------------------------------------------||------------|
A|-6--6-6-6-6-6-6-6-6--4-4-4-4-4-4-4-4--2-2-2-2-2-2-2-2--*||------------|
E|-4--4-4-4-4-4-4-4-4--2-2-2-2-2-2-2-2--0-0-0-0-0-0-0-0---||--5-5-5-5-5-|
                                                                      "A mirror of sorts 
before my being..."


E|---------------------------------------------------------------------|
B|---------------------------------------------------------------------|
G|---------------------------------------------------------------------|
D|---------------------------------------------------------------------|
A|---------------------------------------------------------------------|
E|-5-5-5--5-5-5-5-5-5-5-5--5-5-5-5-3-3-3-3--8-8-8-8-7-7-7-7----4-4-4-4-|


E|------------------------------------------------------------||-------|
B|------------------------------------------------------------||-------|
G|------------------------------------------------------------||-------|
D|------------------------------------------------------------||-------|
A|------------------------------------------------------------||-------|
E|-4-4-4-4--4-4-4-4-4-4-4-4--4-4-4-4-4-4-4--4-4-4-4-4-4-4-4---||-------|
   "My human end has come, that's all that I see..."

                                  SECTION B: GUITAR 2

E|--------------------------------||-----------------------------------|
B|--------------------------------||*----------------------------------|
G|--------------------------------||-----------------------------------|
D|--------------------------------||---4------------4------------3---2-|
A|--------------------------------||*--2---2-2-2-2--2---2-2-2-2--------|
E|--------------------------------||-----------------------------------|


E|---------------------|------------------------------------------------|
B|---------------------|------------------------------------------------|
G|---------------------|-----------------------------------5-6-7--------|
D|---------------------|--3------------3------------5-6-7-----------3-4-|
A|---1----3---2---0----|--1---1-1-1-1--1---1-1-1-1----------------------|
E|---------------------|------------------------------------------------|


E|--------------------------------------------------------------------|
B|--------------------------------------------------------------------|
G|----3-4-5-----------------------------------------------------------|
D|-5-------------4------------4------------3---2----------------------|
A|---------------2---2-2-2-2--2---2-2-2-2----------1----3---2---0-----|
E|--------------------------------------------------------------------|

                                                           SECTION C: BOTH GUITARS

E|------------------------------------------------------||-------------|
B|-----------------------------------------------------*||-------------|
G|------------------------------------------------------||-------------|
D|--3------------3--------------------------------------||-------------|
A|--1---1-1-1-1--1---1-1-1-1--5------------4-----------*||-------------|
E|--------------------------------6---5--------5---4----||-0--0--0--0--|


E|------------------------------------------------------|----------------|
B|------------------------------------------------------|----------------|
G|------------------------------------------------------|----------------|
D|------------------------------------------------------|----------------|
A|-------------13/-14--------------13/-14--14/-18-------|-------------13-|
E|-0--0--0--0---0------0--0--0--0---0-------0------0--0-|-0--0--0--0---0-|


E|----------------------------------------------------------------------|
B|----------------------------------------------------------------------|
G|----------------------------------------------------------------------|
D|---------------------12---------------12--11--10--9-------------------|
A|---------------------10--10-10-10-10--10---9---8--7-------------------|
E|---0--0--0--0--0--0-------------------------------0--0--0--0--0--0--0-|
                       "Now that my soul is set free..."

E|----------------------------------------------|-----------------------|
B|----------------------------------------------|-----------------------|
G|----------------------------------------------|-----------------------|
D|----------------------------------------------|-----------------------|
A|-----13/-14--------------13/-14--14/-18-------|-------------13--------|
E|--0---0------0--0--0--0---0-------0------0--0-|-0--0--0--0---0---0--0-|


E|-----------------------------------------------------------------------|
B|-----------------------------------------------------------------------|
G|-----------------------------------------------------------------------|
D|--------------12---------------12--11--10--9---------------------------|
A|--------------10--10-10-10-10--10---9---8--7-----------------------13--|
E|--0--0--0--0-------------------------------0--0--0--0--0--0--0--0---0--|
                "I'm classified dead now, it seems..."

E|---------------------------------------|-----------------------------|
B|---------------------------------------|-----------------------------|
G|---------------------------------------|-----------------------------|
D|---------------------------------------|-----------------------------|
A|--14--------------13/-14--14/-18-------|-------------13--------------|
E|------0--0--0--0---0-------0------0--0-|-0--0--0--0---0---0--0--0--0-|


E|---------------------------------------------------------------------|
B|---------------------------------------------------------------------|
G|---------------------------------------------------------------------|
D|--------12---------------12--11--10--9-------------------------------|
A|--------10--10-10-10-10--10---9---8--7-----------------------13/-14--|
E|--0--0-------------------------------0--0--0--0--0--0--0--0---0------|
          "My destiny plunders on through..."


E|----------------------------------|-----------------------------------|
B|----------------------------------|-----------------------------------|
G|----------------------------------|-----------------------------------|
D|----------------------------------|-----------------------------------|
A|-------------13/-14--14/-18-------|-------------13--------------------|
E|-0--0--0--0---0-------0------0--0-|-0--0--0--0---0---0--0--0--0--0--0-|

                         BRIDGE: BOTH GUITARS

E|---------------------------------------------------------------------|
B|---------------------------------------------------------------------|
G|---------------------------------------------------------------------|
D|-------------------------2-------------------------3-----------------|
A|--5-----------5--4--3----2----------------3--2--2------------3--2--2-|
E|--3--3-3-3-3--3--2--1----0----------0--2---------------0--2----------|
    "I'm granted a room with a view..." *  Bass

                                                                    SECTION D: GUITAR 2

E------||-----------------------------------------------------------||--|
B------||-----------------------------------------------------------||*-|
G------||-----------------------------------------------------------||--|
D--3---||-----------------------------------10--9--------9----------||--|
A------||-3--2-----------10--------8-----9------------8-----8--7----||*-|
E------||-------3--0--9------0--7-----0------------0--------------8-||--|


E|------------------------------------------------------|---------------|
B|------------------------------------------------------|---------------|
G|------------------------------------------------------|---------------|
D|------------------------------------------------------|---------------|
A|--------3---------2---------3---------2---3--2--------|--------10-----|
E|--0--2------0--1------0--2------0--1------------3--2--|--0--9-------0-|

                                               SECTION E: GUITAR 1

E|------------------------------------------||-||----------------------|
B|-----------------------------------------*||-||*---------------------|
G|------------------------------------------||-||-------------------7--|
D|---------------10--9---------9------------||-||-----------7h9-10-----|
A|-----8------9-------------8-----8--7-----*||-||*--7h9-10-------------|
E|--7------0-------------0--------------8---||-||----------------------|
                                        6x


E|----------------------------------------------------|----------------|
B|----------------------------------------------------|----------------|
G|-10p9-7--------------------------7--10p9-7----------|----------------|
D|---------10p9-7----------7h9-10-------------10p9-7\-|----------------|
A|-----------------7h9-10-----------------------------|--------10------|
E|----------------------------------------------------|--0--9-------0--|

                                             SECTION E: GUITAR 2

E|-----------------------------------------||-||-----------------------|
B|----------------------------------------*||-||*----------------------|
G|-----------------------------------------||-||-----------------------|
D|--------------10--9---------9------------||-||---2----------------2--|
A|----8------9-------------8-----8--7-----*||-||*--2----------------2--|
E|-7------0-------------0--------------8---||-||---0----------------0--|


E|----------------------|----------------------------------------------|
B|----------------------|----------------------------------------------|
G|----------------------|----------------------------------------------|
D|-2--------------------|-----------------------------10--9---------9--|
A|-2--------------------|--------10---------8------9-------------8-----|
E|-0----------x/---\----|--0--9-------0--7------0-------------0--------|

                SECTION F: GUITAR 1

E|-----------||-----------------------------------------------------|-|
B|----------*||-----------------------------------------------------|-|
G|-----------||-----------------------------------------------------|-|
D|-----------||-----7--8-----7--8-----7--8-----7--8--7--6-----------|-|
A|-8--7-----*||--0--------0--------0--------0-----------------------|-|
E|-------8---||-----------------------------------------------------|-|

   SECTION F: GUITAR 2                                  SECTION G: GUITAR 1

E|---------------------------------------------------||-||-------------|
B|---------------------------------------------------||-||*------------|
G|---------------------------------------------------||-||---7--9--9---|
D|-----7--8-----7--8-----7--8-----7--8--7------------||-||---7--7--7---|
A|--0--------0--------0--------0---------------------||-||*------------|
E|-----------------------------------------4---------||-||-------------|
                                              *  Repeat Section A.

E|-------------------------------------------|--------------------------|
B|-------------------------------------------|--------------------------|
G|-7--9--9---7--9---7--5--5---7--5--5--7--5--|-7--9--9---7--9--9---7--9-|
D|-7--7--7---7--7---7--7--7---7--7--7--7--7--|-7--7--7---7--7--7---7--7-|
A|-------------------------------------------|--------------------------|
E|-------------------------------------------|--------------------------|

                                  SECTION G: GUITAR 2

E|-----------------------------||-||-----------------------------------|
B|----------------------------*||-||*----------------------------------|
G|---7--5--5--5---7--5--5--5---||-||-----------7------------5----------|
D|---7--7--7--7---7--7--7--7---||-||---7-------7-------5----5--------3-|
A|----------------------------*||-||*--7-------5-------5----3--------3-|
E|-----------------------------||-||---5---------------3-------------1-|

                                                             SECTION H: BOTH GUITARS

E|-----------|--------------------------------------------||-||--------|
B|-----------|-------------------------------------------*||-||*-------|
G|------3----|---------7---------------5------------3-----||-||--------|
D|------3----|-7-------7-------5-------5-------3----3-----||-||---2----|
A|------1----|-7-------5-------5-------3-------3----1----*||-||*--2----|
E|-----------|-5---------------3---------------1----------||-||---0----|
                                               *  Repeat Section F.

E-----------------------------------------------|----------------------|
B-----------------------------------------------|----------------------|
G-----------------------------------------------|----------------------|
D--------2-----2--------------------------------|--8---8---8-------8---|
A--------2-----2--------------------------------|--6---6---6---6-6-6---|
E---0-0--0-----0----0-0--0--0--0--0--3--2--1--0-|----------------------|


E|---------------------------------------------------------------------|
B|---------------------------------------------------------------------|
G|---------------------------------------------------------------------|
D|-8-----------------------------3----2---------2---------2---------2--|
A|-6-----------------------------1----2---------2---------2---------2--|
E|-----0-0--3--2--1--0--3--2--1-------0----0-0--0----0-0--0----0-0--0--|


E|--------------------|---------------------------------------------|-|
B|--------------------|--------------------------------------------*|-|
G|--------------------|---------------------------------------------|-|
D|--------8---------8-|--------------(8)-------------------3--------|-|
A|--------6----6-6--6-|--------------(6)-------------------3-------*|-|
E|---0-0--------------|------------------------------3--2--1--------|-|

                         SECTION I: GUITAR 2

E|-----------------------||--------------------------------------------|
B|-----------------------||*-------------------------------------------|
G|-----------------------||--------------------------------------------|
D|-----------------------||--------------------------------------------|
A|-3-3-3-3-3-3--3-3-3--3-||*--2--2--3--3--4--4--3--3--2--2--3--3--4--4-|
E|-1-1-1-1-1-1--1-1-1--1-||---0--0--1--1--2--2--1--1--0--0--1--1--2--2-|


                                                         SECTION J: GUITAR 2

E----|------------------------------------------------||-||------------|
B----|-----------------------------------------------*||-||*-----------|
G----|------------------------------------------------||-||---9--------|
D--3-|------------------------------------------------||-||---9--------|
A--1-|--2--2--3--3--4--4--3--3--2--2--3--3--4--4--6--*||-||*--7--------|
E----|--0--0--1--1--2--2--1--1--0--0--1--1--2--2--4---||-||------0-0-0-|
                                                  4x


E|------------------------------------------------------|--------------|
B|------------------------------------------------------|--------------|
G|--------9---------------9---------------9-----10--10--|-9------------|
D|--------9---------------9---------------9-----10--10--|-9------------|
A|--------7---------------7---------------7------8---8--|-7------------|
E|-0-0-0-----0-0-0-0-0-0-----0-0-0-0-0-0----------------|----0-0-0-0-0-|


                                                         SECTION K: BOTH GUITARS

E|----------------------------------------------------||----------------|
B|---------------------------------------------------*||----------------|
G|----9---------------9---------------10-----10--10---||---9------------|
D|----9---------------9---------------10-----10--10---||---9------------|
A|----7---------------7----------------8------8---8--*||---7------------|
E|-0-----0-0-0-0-0-0-----0-0-0-0-0-0------------------||------0-0-0-0-0-|
                                                 6x


E|--------------------------------------------------|------------------|
B|--------------------------------------------------|------------------|
G|----9---------------9---------------9-----10--10--|-9--------------9-|
D|----9---------------9---------------9-----10--10--|-9--------------9-|
A|----7---------------7---------------7------8---8--|-7--------------7-|
E|-0-----0-0-0-0-0-0-----0-0-0-0-0-0----------------|----0-0-0-0-0-0---|

                                                         END: GUITAR 1

E|----------------------------------------------------||----------------|
B|----------------------------------------------------||----------------|
G|--------------9-------------------------------------||----------------|
D|--------------9--------------9--10-10--9--10-10-9---||---9------------|
A|--------------7-------------------------------------||----------------|
E|--0-0-0-0-0-0----0-0-0-0-0-0------------------------||------0-0-0-0-0-|


E|--------------------------------------------------|-------------------|
B|--------------------------------------------------|-------------------|
G|--------------------------------------------------|-------------------|
D|----9---------------9---------------9-----10--10--|-9---------------9-|
A|--------------------------------------------------|-------------------|
E|-0-----0-0-0-0-0-0-----0-0-0-0-0-0----------------|----0-0-0-0-0-0----|

                                                 END: GUITAR 2

E|----------------------------------------------------------------------|
B|----------------------------------------------------------------------|
G|-------------------------------14-----14--14--------------------------|
D|---------------9---------------------------------9---------------9----|
A|-------------------------------------------------7---------------7----|
E|--0-0-0-0-0-0-----0-0-0-0-0-0-----------------------0-0-0-0-0-0-----0-|

E|------------------------------------------|--------------------------|
B|------------------------------------------|--------------------------|
G|------------------------------------------|--------------------------|
D|------------9---------------9-----10--10--|-9---------------9--------|
A|------------7---------------7------8---8--|-7---------------7--------|
E|-0-0-0-0-0-----0-0-0-0-0-0----------------|----0-0-0-0-0-0-----0-0-0-|

                                          (END-1)

E|---------------------------------------------------------------------|
B|---------------------------------------------------------------------|
G|------------------------------------------13---------------13--------|
D|--------9---------------10-----10--10--------------------------------|
A|--------7------------------------------------------------------------|
E|-0-0-0-----0-0-0-0-0-0------------------------0-0-0-0-0-0------0-0-0-|


E|----------------------------------------|----------------------------|
B|----------------------------------------|----------------------------|
G|--------13---------------13-----14--14--|-13---------------13--------|
D|----------------------------------------|----------------------------|
A|----------------------------------------|----------------------------|
E|-0-0-0------0-0-0-0-0-0-----------------|-----0-0-0-0-0-0------0-0-0-|


                                                    (END-2)

E|-------------------------12--------13-----13--------------------------|
B|-------------------------15b17-----16b18--16b18-----------------------|
G|--------13------------------------------------------------------------|
D|----------------------------------------------------9---------------9-|
A|----------------------------------------------------------------------|
E|-0-0-0------0-0-0-0-0-0--------------------------------0-0-0-0-0-0----|


E|---------------------------------------------|------------------------|
B|---------------------------------------------|------------------------|
G|---------------------------------------------|------------------------|
D|---------------9---------------9-----10--10--|-9---------------9------|
A|---------------------------------------------|------------------------|
E|--0-0-0-0-0-0-----0-0-0-0-0-0----------------|----0-0-0-0-0-0-----0-0-|

                                           (END-1)

E|-------------------------------------------12--------12-----12-------|
B|-------------------------------------------15b17-----15b17--15b17----|
G|---------------------------------------------------------------------|
D|----------9---------------9-----10--10-------------------------------|
A|--------------------------7------8---8-------------------------------|
E|-0-0-0-0-----0-0-0-0-0-0---------------------------------------------|

                                                        (END-2)
E|-15h19-15--15h20-15--15h19-15--22b24--r----\--------*|---------------|
B|----------------------------------------------------*|---------------|
G|----------------------------------------------------*|---------------|
D|----------------------------------------------------*|--9-----10--10-|
A|----------------------------------------------------*|--7------8---8-|
E|----------------------------------------------------*|---------------|


E|------------------------------------*-|
B|------------------------------------*-|
G|---------------------9------\-------*-|
D|----9-----10--10-----9------\-------*-|
A|----7------8---8-----7------\-------*-|
E|---------------------0--------------*-|

*****************************************************************************

ON THEY SLAY

  SECTION A: BOTH GUITARS

E-||--------------------------------------------------------------|----|
B-||*-------------------------------------------------------------|----|
G-||------------------------------------------------------5-------|----|
D-||---2------2------2-------2-------2-------2-------3----5----3--|-2--|
A-||*--2------2------2-------2-------2-------2-------3----3----3--|-2--|
E-||---0--0-0-0--0-0-0---0-0-0---0-0-0---0-0-0---0-0-1--0----0-1--|-0--|


      SECTION B: BOTH GUITARS

E|----------------------------------------------------------||---------|
B|---------------------------------------------------------*||---------|
G|-------------------------------------------------5----3---||---------|
D|-----2------2-------2-------2-------2-------3----5----3---||---------|
A|-----2------2-------2-------2-------2-------3----3----1--*||--2------|
E|-0-0-0--0-0-0---0-0-0---0-0-0---0-0-0---0-0-1--0----0-----||--0--0-0-|
                                                        4x

E|------------------------------------------------------------|---------|
B|------------------------------------------------------------|---------|
G|------------------------------------------------------------|---------|
D|------------------------------------------------------------|---------|
A|---2--------2--------2--------2--------2--------2--------2--|-------2-|
E|-0-0--0-0-0-0--0-0-0-0--0-0-0-0--0-0-0-0--0-0-0-0--0-0-0-0--|-0-0-0-0-|


SECTION C: BOTH GUITARS

E|---------------------------------------------------------------||-----|
B|---------------------------------------------------------------||*----|
G|---------------------------------------------------------------||-----|
D|---------------------------------------------------------------||---2-|
A|-------2-------2-------2-------2-------2-------2--2--------3---||*--2-|
E|-0-0-0-0-0-0-0-0-0-0-0-0-0-0-0-0-0-0-0-0-0-0-0-0--0--1-1-1-1---||---0-|
                                                                      "On they slay 
clouds of death, no mercy or no fear..."


E|-------------------------------------------|-------------------------|
B|-------------------------------------------|-------------------------|
G|-------------------------------------------|-------------------------|
D|----------------(2)------------------------|-------------------------|
A|----------------(2)---------------------3--|-2--------2-------2------|
E|----------------(0)---------------1-1-1-1--|-0--0-0-0-0-0-0-0-0--0-0-|


E|--------------------------------------------||------------------------|
B|-------------------------------------------*||------------------------|
G|--------------------------------------------||------------------------|
D|--------------------------------------------||---3----------------(3)-|
A|---2-------2--------2-------2--2--------3--*||---3----------------(3)-|
E|-0-0-0-0-0-0--0-0-0-0-0-0-0-0--0--1-1-1-1---||---1----------------(1)-|
                                           "Take your final breath, you dying time is near..."


     SECTION D: BOTH GUITARS

E|--------------------||------------------------------------------------|
B|--------------------||------------------------------------------------|
G|--------------------||------------------------------------------------|
D|--------------------||---------------------------------------2--------|
A|--------------------||---------------------------------------2--------|
E|--------------------||---------------------------------------0--0-0-0-|


E|------------------------------------------------------------|--------|
B|------------------------------------------------------------|--------|
G|------------------------------------------------------------|--------|
D|--------------------------2-----------------------------2---|-2------|
A|---------------2-3-2------2----------------------2-3-2--2---|-2------|
E|-0-0-0-2-2-3-0-------0-0--0--0-0-0-0-0-0-0-2-3-0--------0---|-0--0-0-|

SECTION E: BOTH GUITARS

E|-----------------------------------------------------------||---------|
B|-----------------------------------------------------------||*--------|
G|-----------------------------------------------------------||---------|
D|--------------------------3--------------------------------||---2-2-2-|
A|---------------2-3-2------3--------------------------------||*--2-----|
E|-0-0-0-0-2-3-0-------0-0--1--1-1-1-1-1-1-1-1-1-1-x/---\----||---0---0-|
                                                                      *  Gtr. 1 plays high notes.

E|---------------------------------------------------------------|-----|
B|---------------------------------------------------------------|-----|
G|---------------------------------------------------------------|-----|
D|-2-2-2-2-2--------------------2-2-2-2-2-2-2-2------------------|-2-2-|
A|-----------------2-3-2--------2---------------------2-3-2------|-2---|
E|-0-0-0-0-0-2-3-0-------3-2----0---0-0-0-0-0-0-2-3-0-------3-2--|-0---|


 SECTION F: BOTH GUITARS

E|-----------------------------------------------------------------||--|
B|----------------------------------------------------------------*||--|
G|--------------------------------------------------------5-5-5----||--|
D|-2-2-2-2-2-2--------------------3-3-3-3-3-3-3-3-3-3-3-3-----3----||--|
A|-------------------2-3-2--------3-----------------------3-3-----*||--|
E|-0-0-0-0-0-0-2-3-0-------3-2----1---1-1-1-1-1-1-1-1-1-1----------||--|
                                                                3x

E|-----------------------------------------------------------------|----|
B|-----------------------------------------------------------------|----|
G|-----------------------------------------------------------------|----|
D|-----------------------------------------------------7-----------|----|
A|--7-7-7-7-8-8-7-7--6-6-6-6-7-7-6-6--5-5-5-5-6-6-5-5--5----8---7--|--7-|
E|----------------------------------------------------------6---5--|----|


E|----------------------------------------------------------------------|
B|----------------------------------------------------------------------|
G|-------------------------------------------------------7---6----9-9-9-|
D|--------------------------------------------------7----5---4----------|
A|-7-7-7-8-8-7-7--6-6-6-6-7-7-6-6--5-5-5-5-6-6-5-5--5-------------7-7-7-|
E|----------------------------------------------------------------------|
                                                                  *  Guitar 1 plays top 
as harmony.

E|------------------------------------------------------------|--------|
B|------------------------------------------------------------|--------|
G|-9-10-10-9-9--8-8-8-8-9-9-8-8--7-7-7-7-8-8-7-7--7-----------|--9-9-9-|
D|------------------------------------------------7----8---7--|--------|
A|-7--8--8-7-7--6-6-6-6-7-7-6-6--5-5-5-5-6-6-5-5--5----8---7--|--7-7-7-|
E|-----------------------------------------------------6---5--|--------|


E|-------------------------------13b15---------(15)------13b15---r-b2--|
B|---------------------------------------------------------------------|
G|-9-10-10-9-9--8-8-8-8-9-9-8-8--------------------------------------7-|
D|--------------------------------------------------------7----------5-|
A|-7--8--8-7-7--6-6-6-6-7-7-6-6---5----5-5-5-6---6--5-5---5------------|
E|---------------------------------------------------------------------|


E---\------------------------------------------------------------------|
B----------------------------------------------------------------------|
G----6-----------------------------------------------------------------|
D----4----9-9-9-9-10\-9-9--8-8-8-8-9\-8-8--7-7-7-7-8\-7-7--7-----------|
A---------7-7-7-7--8\-7-7--6-6-6-6-7\-6-6--5-5-5-5-6\-5-5--5----8---7--|
E---------------------------------------------------------------6---5--|


E-|---------------------------------------------------------------------|
B-|---------------------------------------------------------------------|
G-|--------------------------------------------------------7---6--------|
D-|--9-9-9-9-10\-9-9--8-8-8-8-9\-8-8--7-7-7-7-8\-7-7--7----5---4--------|
A-|--7-7-7-7--8\-7-7--6-6-6-6-7\-6-6--5-5-5-5-6\-5-5--5-------------7-7-|
E-|---------------------------------------------------------------------|
                                                                    "Eagerness to kill, 
meager presence of their sight.  You know your blood will spill, your end's tonight..."


E|------------------------------------------------------------|--------|
B|------------------------------------------------------------|--------|
G|------------------------------------------------------------|--------|
D|------------------------------------------------7-----------|--------|
A|-7-7-8-8-7-7--6-6-6-6-7-7-6-6--5-5-5-5-6-6-5-5--5----8---7--|--7-7-7-|
E|-----------------------------------------------------6---5--|--------|

SECTION G: BOTH GUITARS

E|---------------------------------------------------------------------|
B|---------------------------------------------------------------------|
G|---------------------------------------------------7---6-------------|
D|----------------------------------------------7----5---4----1--2--3--|
A|-7-8-8-7-7--6-6-6-6-7-7-6-6--5-5-5-5-6-6-5-5--5-------------1--2--3--|
E|---------------------------------------------------------------------|
   "Praising you religion isn't doing any good.  Praying to be saved, now where's your god?

E|----------------------------------------------|----------------------|
B|----------------------------------------------|----------------------|
G|----------------------------------------------|----------------------|
D|----------2--------------------------1--2--1--|--3-----------2-------|
A|----------2--------------------------1--2--1--|--3-----------2-------|
E|-0--0--0-----0--0--0--0--0--0--0--0-----------|-----0--0--0-----0--0-|

                                   SECTION H: BOTH GUITARS

E|--------------------10--9---------||---------------------------------|
B|--------------9--8----------------||*--------------------------------|
G|--------7--6---------7--6---------||---------------------------------|
D|--------------6--5----------------||---3-------------2---------------|
A|--------5--4----------------------||*--3-------------2---------------|
E|--0--0----------------------------||-------0--0--0-------0--0--0--0--|
          *  Guitar 1 plays top notes.   "Infest..."


E|-----------------------|--------------------------------------------10-|
B|-----------------------|--------------------------------------9--8-----|
G|-----------------------|--------------------------------7--6---------7-|
D|-------------1---2---1-|--3-------------2---------------------6--5-----|
A|-------------1---2---1-|--3-------------2---------------5--4-----------|
E|-0--0--0--0------------|------0--0--0-------0--0--0--0-----------------|
               "Your putrid mind..."

              SECTION I: GUITAR 2

E|--9------||-||-------------------------------------------------------|
B|--------*||-||*------------------------------------------------------|
G|--6------||-||-------------------------------------------------------|
D|---------||-||---3----------------2----------------------------------|
A|--------*||-||*--3----------------2----------------------------------|
E|---------||-||-------0-0-0-0-0-0-----0-0-0-0-0-0-0-0-0-0-0-0-0-0-0-0-|
        5x

E|------------|--------------------------------------------------------|
B|------------|--------------------------------------------------------|
G|------------|---------------------------------------------------7--6-|
D|--1---2---1-|--3----------------2-------------------------6--5-------|
A|--1---2---1-|--3----------------2-------------------5--4-------------|
E|------------|------0-0-0-0-0-0-----0-0-0-0-0-0-0-0-------------------|

          SECTION J: BOTH GUITARS

E|------||-||----------------------------------------------------------|
B|-----*||-||*---------------------------------------------------------|
G|------||-||----------------------------------------------------------|
D|------||-||---3------2------3----4----5---3------2------8-----7----6-|
A|-----*||-||*--3------2------3----4----5---3------2------8-----7----6-|
E|------||-||---1--0-0-0--0-0-1--0-2--0-3---1--0-0-0--0-0-6-----5----4-|
     4x

E--|----------------------------------------------------------||-------|
B--|---------------------------------------------------------*||-------|
G--|----------------------------------------------------------||-------|
D--|-3------2------3----4----5---3------2------8-----7----6---||-------|
A--|-3------2------3----4----5---3------2------8-----7----6--*||-------|
E--|-1--0-0-0--0-0-1--0-2--0-3---1--0-0-0--0-0-6-----5----4---||-------|


E|-------------------------------------|-------------------------------|
B|-------------------------------------|-------------------------------|
G|-------------------------------------|-------------------------------|
D|-----6----5------------------6----5--|--4----------------6----5----4-|
A|-----6----5------------------6----5--|--4----------------6----5----4-|
E|-----4----3------------------4----3--|--2----------------4----3----2-|

                 SECTION K: BOTH GUITARS

E|---------------||----------------------------------------------------|
B|---------------||*---------------------------------------------------|
G|---------------||----------------------------------------------------|
D|----3----------||---2-2-2-2-2-2-2-2--------------------2-2-2-2-2-2-2-|
A|----3----------||*--2---------------------2-3-2--------2-------------|
E|----1---x/-\---||---0---0-0-0-0-0-0-2-3-0-------3-2----0---0-0-0-0-0-|
                          *  Gtr. 1 plays high notes.

E|--------------------|------------------------------------------------|
B|--------------------|------------------------------------------------|
G|--------------------|------------------------------------------------|
D|-2------------------|-2-2-2-2-2-2-2-2--------------------3-3-3-3-3-3-|
A|---------2-3-2------|-2---------------------2-3-2--------3-----------|
E|-0-2-3-0-------3-2--|-0---0-0-0-0-0-0-2-3-0-------3-2----1---1-1-1-1-|

                           END: BOTH GUITARS

E|----------------------||----------------------------------------------|
B|---------------------*||----------------------------------------------|
G|-------------5-5-5----||----------------------------------------------|
D|-3-3-3-3-3-3-----3----||---2-2-2-2-2-2-2-2--------------------2-2-2-2-|
A|-------------3-3-----*||---2---------------------2-3-2--------2-------|
E|-1-1-1-1-1-1----------||---0---0-0-0-0-0-0-2-3-0-------3-2----0---0-0-|
                                 *  Gtr. 1 plays high notes.


E|--------------------------|------------------------------------------|
B|--------------------------|------------------------------------------|
G|--------------------------|------------------------------------------|
D|-2-2-2-2------------------|-2-2-2-2-2-2-2-2--------------------3-----|
A|---------------2-3-2------|-2---------------------2-3-2--------3-----|
E|-0-0-0-0-2-3-0-------3-2--|-0---0-0-0-0-0-0-2-3-0-------3-2----1-----|

*****************************************************************************

BEYOND

SECTION A: BOTH GUITARS

E-||-----------------------------------------------------------|-------|
B-||*----------------------------------------------------------|-------|
G-||-----------------------------------------------------------|-------|
D-||-----------------------------------------------------------|-------|
A-||*--------------------------8----------------------------6--|-------|
E-||---0--0--0-0-0--0-0-0--7--------0--0--0-0-0--0-0-0--5------|--0--0-|


E|----------------------------------------------------------------------|
B|----------------------------------------------------------------------|
G|---------------------------------------------8------------------------|
D|---------------------------------------------8------------------------|
A|--------------------8------------------------6------------------------|
E|--0-0-0--0-0-0--7--------0--0--0-0-0--0-0-0--6-------0--0--0-0-0--0-0-|


E|----------------------------------------|-----------------------------|
B|----------------------------------------|-----------------------------|
G|----------------------------------------|-----------------------------|
D|----------------------------------------|-----------------------------|
A|--------8----------------------------6--|------------------------8----|
E|-0--7--------0--0--0-0-0--0-0-0--5------|-0--0--0-0-0--0-0-0--7-----0-|


SECTION B: GUITAR 2

E|-----------------------------------||-||-----------------------------|
B|----------------------------------*||-||*----------------------------|
G|-----------------8------7----------||-||-----------------------------|
D|-----------------8------7------8---||-||-----------10\-9-------------|
A|-----------------6------5------8--*||-||*-----------8\-7---------3p2-|
E|-0--0-0-0--0-0-0-6--0-0-5--0-0-6---||-||---0-0-0-0-------0-0-0-0-----|
                                 3x

E|---------------------------------------------|-----------------------|
B|---------------------------------------------|-----------------------|
G|---------------------------------------------|-----------------------|
D|-2p0--------------10\-9-------------2h3------|---------10\-9---------|
A|-------------------8\-7---------2h3-----2h3--|----------8\-7---------|
E|-----3p2--0-0-0-0-------0-0-0-0--------------|-0-0-0-0-------0-0-0-0-|


 SECTION C: BOTH GUITARS

E|--------------------------------------------------||-----------------|
B|-------------------------------------------------*||-----------------|
G|--------------------------------------------------||-----------------|
D|-----2p0--------------10\-9-------------2h3-------||-----------------|
A|-3p2-------------------8\-7---------2h3-----2h3--*||-----------------|
E|---------3p2--0-0-0-0-------0-0-0-0---------------||---0-0-0-0-0-0-0-|
                                                         "Take a piece of life in hand, 
know that life is yours..."

E|-----------------------------------------------------|---------------|
B|-----------------------------------------------------|---------------|
G|----------------3------------------------------------|---------------|
D|------------5---3----------------------------5---3---|---------------|
A|------------5---1----------------------------5---3---|---------------|
E|-0-0-0-0-0--3-0-----0-0-0-0-0-0-0-0-0-0-0-0--3-0-1---|-0-0-0-0-0-0-0-|
                                                         "Day by day it grows so close, 
the end..."

 SECTION D: BOTH GUITARS

E|-------------------------------------------------||-------------------|
B|-------------------------------------------------||*------------------|
G|----------------3---------------------------8----||-------------------|
D|------------5---3--------------------2------8----||-------------------|
A|------------5---1--------------------2------6----||*------------------|
E|-0-0-0-0-0--3-0-----0-0-0-0-0-0-0-0--0-----------||---0-0-0-0-0-0-0-0-|
                                                        "What's in store, we fear no 
a blaze of ritual fire..."


E|---------------------------------------------------|-----------------|
B|---------------------------------------------------|-----------------|
G|--------------3------------------------------------|-----------------|
D|----------5---3----------------------------5---3---|-----------------|
A|----------5---1----------------------------5---3---|-----------------|
E|-0-0-0-0--3-0-----0-0-0-0-0-0-0-0-0-0-0-0--3-0-1---|-0-0-0-0-0-0-0-0-|
                                                       "Hoping for a place of worship to 
all my sins..."


SECTION E: BOTH GUITARS

E|----------------------------------------------------||---------------|
B|---------------------------------------------------*||---------------|
G|--------------3--------------------9------------8---||---------------|
D|----------5---3--------------------9--------10--8---||---------------|
A|----------5---1--------------------7--------10--6--*||---------------|
E|-0-0-0-0--3-0-----0-0-0-0-0-0-0-0-----0-0-0--8------||---4-4-4-4-4-4-|


E|-------------------------------------------------------|-------------|
B|-------------------------------------------------------|-------------|
G|-------------------------------------------------------|-------------|
D|--------------6-6-5----------------------------9-9-8---|---------6-6-|
A|--------------4-4-3----------------------------7-7-6---|---------4-4-|
E|-4-4-4-4-4-4----------4-4-4-4-4-4-4-4-4-4-4-4----------|-4-4-4-4-----|


SECTION F: GUITAR 2

E|------------------------------------------------------||-||-----------|
B|-----------------------------------------------------*||-||*----------|
G|------------------------------------------------------||-||-----------|
D|-5-----------9-9-8-----------6-6-5---9------------8---||-||-----------|
A|-3-----------7-7-6-----------4-4-3---7--------10--6--*||-||*--2-2-2-2-|
E|-----4-4-4-4---------4-4-4-4------------0-0-0--8------||-||-----------|


SECTION G: GUITAR 2

E|--------------------------------------------------------------||-||--|
B|-------------------------------------------------------------*||-||*-|
G|------------------------------------------------4h5-----3h4---||-||--|
D|--------------------------------------------4h5-----3h4-------||-||--|
A|-3p2-2-2--3p2-2-2-5p2-5p2--2-2-2-2-3p2-3p2-------------------*||-||*-|
E|--------------------------------------------------------------||-||--|


E|---------------------------------------------------------------------|-|
B|--------------------------------------------------------------------*|-|
G|-------------------------------------------------------2h3-----1p2---|-|
D|---------------------------------------------------2h3-----1h2-------|-|
A|--0-0-0-0-1p0-0-0-1p0-0-0-3p0-3p0--0-0-0-0-1p0-1p0------------------*|-|
E|---------------------------------------------------------------------|-|


SECTION H: BOTH GUITARS

E|----------------------------------------------------------------------|
B|----------------------------------------------------------------------|
G|----------------------------------------------------------------------|
D|-8-8------------------------------------1------------------4\-3-3-2---|
A|-6-6-5-4---------4/-5---3--------4/-5---1--------4/-5---3--2\-1-1p0-3-|
E|-----3-2-0-0-0-0-2/-3-0-1--0-0-0-2/-3-0----0-0-0-2/-3-0-1-----------1-|


SECTION I: BOTH GUITARS

E-||-------------------------------------------------------------------|-|
B-||*-----------------------------------------------------------------*|-|
G-||-------------------------------------------------------------------|-|
D-||---------------------------------1------------------4\-3-3-2-------|-|
A-||*---------4/-5---3--------4/-5---1--------4/-5---3--2\-1-1p0-4-3--*|-|
E-||--0-0-0-0-2/-3-0-1--0-0-0-2/-3-0----0-0-0-2/-3-0-1-----------2-1---|-|


SECTION J: BOTH GUITARS

E-||---------------------------------------------------------------|---|
B-||*--------------------------------------------------------------|---|
G-||---------------------------------------------------------------|---|
D-||-----------------------------------------------------------1---|---|
A-||*-------------------4/-5-----3--------------------4/-5-----1---|---|
E-||---0-0-0-0-0-0-0-0--2/-3--0--1---0-0-0-0-0-0-0-0--2/-3--0------|-0-|


   SECTION K: BOTH GUITARS

E|------------------------------------------------------||-------------|
B|-----------------------------------------------------*||-------------|
G|------------------------------------------------------||-------------|
D|-----------------------------4--3--3--2---------------||-------------|
A|----------------4/-5-----3---2--1--1--0---4---3------*||----------4/-|
E|-0-0-0-0-0-0-0--2/-3--0--1----------------2---1-------||--0-0-0-0-2/-|


E|------------------------------------------------------|--------------|
B|------------------------------------------------------|--------------|
G|---------------------------------------------5\-4-----|--------------|
D|---------------------1------------------5\-4-3\-2-----|--------------|
A|-5---3--------4/-5---1--------4/-5---3--3\-2-------3--|---------4/-5-|
E|-3-0-1--0-0-0-2/-3-0----0-0-0-2/-3-0-1-------------1--|-0-0-0-0-2/-3-|


SECTION L: BOTH GUITARS

E|----------------------------------------------------||---------------|
B|----------------------------------------------------||*--------------|
G|-------------------------------------------5\-4-----||---------------|
D|-------------------1------------------5\-4-3\-2-----||---------------|
A|---3--------4/-5---1--------4/-5---3--3\-2-------3--||*--------------|
E|-0-1--0-0-0-2/-3-0----0-0-0-2/-3-0-1-------------1--||---0--0--0--0--|


E|-------------------------------------------|--------------------------|
B|-------------------------------------------|--------------------------|
G|-------------------------------------------|--------------------------|
D|-------------------------------2---1---0---|--------------------------|
A|-------------------------------2---1---0---|--------------------------|
E|-0-0-0--0--0--0-0-0--0--0--0---------------|--0--0--0--0--0-0-0--0--0-|


                                   SECTION M: GUITAR 2

E|-------------------------------||-------------------------------------|
B|------------------------------*||-------------------------------------|
G|-------------------------------||-4----------4------------------------|
D|-------------------4---3---2---||-2--2-2-2-2-2--2-2-2-2--4----------4-|
A|-------------------2---1---0--*||------------------------2--2-2-2-2-2-|
E|--0-0-0--0--0--0---------------||-------------------------------------|
                             3x

E|---------------------------------|-----------------------------------|
B|---------------------------------|-----------------------------------|
G|-----------4----------4----------|------------------------4----------|
D|-----------2--2-2-2-2-2--2-2-2-2-|-5----------5-----------2--2-2-2-2-|
A|--2-2-2-2------------------------|-3--3-3-3-3-3--3-3-3-3-------------|
E|---------------------------------|-----------------------------------|

                                  END: BOTH GUITARS

E|---------------------------------------------------------------------|
B|---------------------------------------------------------------------|
G|------------4--------------------------------------------------------|
D|-4----------2--2-2-2-2-5--5--5---------------------------------------|
A|-2--2-2-2-2------------3--3--3---------------------------------------|
E|----------------------------------0--0--0--0--0-0-0--0--0--0-0-0--0--|


E|--------------------|------------------------------------------------|
B|--------------------|--------------------------------------------12~-|
G|--------------------|------------------------------------------------|
D|--------4---3---2---|---------------------------------------------4~-|
A|--------2---1---0---|---------------------------------------------2~-|
E|-0--0---------------|--0--0--0--0--0-0-0--0--0--0-0-0--0--0--0-------|

*  Gtr. 1 plays top.

E|-----------------------------|---------------------------------------|
B|--11~--10~-----12~--11~--10~-|---------------------------------------|
G|-----------------------------|---------------------------------------|
D|---3~---2~------4~---3~---2~-|---------------------------------------|
A|---1~---0~------2~---1~---0~-|---------------------------------------|
E|-----------------------------|--0--0--0--0--0-0-0--0--0--0-0-0--0--0-|


E|------19~--18~--17~-\--*-|
B|-----------------------*-|
G|-----------------------*-|
D|-------4~---3~---2~----*-|
A|-------2~---1~---0~----*-|
E|--0--------------------*-|
        *  Gtr. 1 plays top.

*****************************************************************************

I DENY

INTRO: BASS

E-||--------------------------------------------------------------------|
B-||*-------------------------------------------------------------------|
G-||------------9-----------------8----------------9-------11--------12-|
D-||--------------10----------------9----------------10-------12--------|
A-||*----------------7--------------------------------------------------|
E-||--0--0-0-0----------0--0-0-0------7--0--0-0-0-------8--------10-----|


E|-------|-------------------------------------------------------------|
B|-------|-------------------------------------------------------------|
G|-------|----------9----------------8----------------9----------------|
D|-14----|------------10---------------9----------------10-------------|
A|-------|---------------7---------------------------------------------|
E|----12-|-0--0-0-0---------0--0-0-0-----7--0--0-0-0-------8--0--0-0-0-|


SECTION A: BOTH GUITARS ARRANGED FOR ONE

E|--------||-----------------------------------------------|-------7-----|
B|-------*||-----------------------------------------------|----8-----11-|
G|-8------||--------9--7----------------(7)----------------|-7-----------|
D|---9----||-----9-----------------------------------------|-------------|
A|-------*||--7--------------------------------------------|-------------|
E|-----7--||-----------------------------------------------|-------------|
                               "I deny your wretched lifestyle..."


E|----------------------------------------------------------------------|
B|----------------(11)-----------------------6--5----------------12--11-|
G|-----------------(7)--------------------4-------------------9---------|
D|-------------------------------------5--------------------------------|
A|----------------------------------------------------------------------|
E|----------------------------------------------------------------------|
         "Who am I to fool myself?"                     "A distant cry of help from others..."


E|----------------------|----------------------------------------------|
B|----------------(5)---|----------------------------------------------|
G|--12-----------(12)---|----------------------------------------------|
D|--11-----------(11)---|----------------------------------------------|
A|----------------------|-7--5-----------------------------------------|
E|----------------------|-------7--6----------------(6)----------------|
                                           "A child's brain, a world of greed..."


E|-------------------------------7----------------------|--------------|
B|----------------------------8-----11-----------(11)---|-------6--5---|
G|--------9--7-------------7----------------------(7)---|----4---------|
D|-----9------------------------------------------------|-5------------|
A|--7---------------------------------------------------|--------------|
E|------------------------------------------------------|--------------|
                     "It's all around you, can't you see..."


E|---------------------------------------------------------------------|
B|--------------12--11----------------(5)------------------------------|
G|-----------9----------12-----------(12)------------------------------|
D|----------------------11-----------(11)------------------------------|
A|-------------------------------------------7--5----------------------|
E|-------------------------------------------------7--6----------------|
       "Are you blind to the likes of me..."


E|--------------------|-12--------14--------15--------------------------|
B|--------------------|-15b17-----17b19-----18b20-----------------------|
G|--------------------|------------------------------------------4------|
D|--------------------|------------------------------------------4----3-|
A|--------------------|------------------------------------------2----3-|
E|-(6)----------------|-----------------------------------------------1-|


SECTION B: BOTH GUITARS

E|------||-||-----------------------------------------------------------|
B|------||-||*-------------6----------------------------4---------------|
G|------||-||----------5----------------------------3-------------------|
D|------||-||------9----------------------------7-----------------------|
A|------||-||*--7-------------3-3-3--0-0-0--5--------------1-1-1--------|
E|------||-||-----------------------------------------------------1-1-1-|
                              "Politician..."   "I see through your charade..."

SECTION C: BOTH GUITARS

E-|----------------------------------------------------------||--------|
B-|-----------6----------------------------4----------------*||--------|
G-|-------5----------------------------3---------------------||--------|
D-|----9---------------------------7-------------------------||--------|
A-|-7------------3-3-3--0-0-0--5--------------1-1-1---------*||---2----|
E-|--------------------------------------------------1-1-1---||---3--0-|
                 "Speaking all your brainless lies, you're all the same..."


E|----------------------------------------------------|-----------------|
B|----------------------------------------------------|-----------------|
G|----------------------------------------------------|-----------------|
D|----------------------------------------------------|-----------------|
A|--------2-2-----------2-2-----2-2-----2-2-----------|-2-----------2-2-|
E|--0--0--3-3--0--0--0--3-3--0--3-3--0--3-3--0--0--0--|-3--0--0--0--3-3-|


SECTION D: GUITAR 1

E|------------------------------------------||--------------------------|
B|------------------------------------------||*-------------------------|
G|------------------------------------------||------4--5----------------|
D|------------------------------------------||---2--------5--4--5p4--5--|p
A|-----------2-2-----2-2-----2-2------------||*-------------------------|
E|--0--0--0--3-3--0--3-3--0--3-3--0--0--0---||--------------------------|
                                            *  Guitar 2 plays Section C with triplet at 
of each measure.


E|-----------------------------------||-||------6--7-------------------|
B|----------------------------------*||-||*-----------8--7--8p7-8p7----|
G|-----------4--5--------------------||-||---9-----------------------7-|
D|-4--0---2--------5--4--0--2p0------||-||-----------------------------|
A|-------------------------------2--*||-||*----------------------------|
E|-----------------------------------||-||-----------------------------|


SECTION E: GUITAR 1

E|-----6--7--------------------||--------------------------------------|
B|-----------8--7-------------*||--------------------------------------|
G|--9--------------7--9p7------||--------------------------------------|
D|-------------------------9---||---7--9-----10----\-5-----------------|
A|----------------------------*||---5--7------8----\-3-----1-----------|
E|-----------------------------||--------------------------------------|
                                    "I deny all you see..."

 SECTION E: GUITAR 2

E|----------|----------------------------------------------------------|
B|----------|----------------------------------------------------------|
G|----------|----------------------------------------------------------|
D|----------|---------------------/---8----------(8)----------7--9-----|
A|----------|--(1)--------------------------------------------5--7-----|
E|----------|----------------------------------------------------------|


E|---------------------------------------------|-----------------------|
B|---------------------------------------------|-----------------------|
G|---------------------------------------------|-----------------------|
D|-10----\-5-----------------------------------|-----------------------|
A|--8----\-3-----2-----------2-2-----------2-2-|----2-2-----2-2--------|
E|---------------3--0--0--0--3-3--0--0--0--3-3-|-0--3-3--0--3-3--0--0--|

                                 (E-1)

E|---------------------------------------------------------------------|
B|---------------------------------------------------------------------|
G|----------------------------------/---15-----------------------------|
D|-----/---8----------(8)----------------------------7--9----10---\-5--|
A|---------------------------------------------------5--7-----8---\-3--|
E|-0-------------------------------------------------------------------|
                                                     "I don't have to believe..."

                      (E-2)

E|-----------------||---------------------------------------------------|
B|-----------------||---------------------------------------------------|
G|-----------------||---------------------------------------------------|
D|-------3---------||-----(8)----------7--9----10---\-5--------3--------|
A|---1-1-1------3--||------------------5--7-----8---\-3----1-1-1------3-|
E|----------1-1-1--||---------------------------------------------1-1-1-|

*  Repeat Section B.

SECTION F: BOTH GUITARS

E--||------------------------------------------------|------------------|
B--||------------------------------------------------|------------------|
G--||-----------------------------------7/-9---8-----|------------------|
D--||---2--------------4/-5---4---------7/-9---8-----|-------8/-9---8---|
A--||---2--------------4/-5---4---------5/-7---6-----|-------8/-9---8---|
E--||---0--------------2/-3---2---------5/-7---6-----|-------6/-7---6---|


SECTION G: BOTH GUITARS

E|---------------------------||----------------------------------------|
B|---------------------------||*---------------------------------------|
G|---------------------------||----------------------------------------|
D|---------\-3---------------||-------3-----------3--------------3-----|
A|---------\-3---------------||*--2---1---2-2-2---1---2-2-2--2---1---2-|
E|---------\-1---------------||---0-------0-0-0-------0-0-0--0-------0-|
               "It's God's way says your horrid wife..."


E|-----------------||---------------------------------------------------|
B|----------------*||---------------------------------------------------|
G|-----------------||-------------7--7------------------10--10----------|
D|-----3-------3---||-----3---x-x-7--7---x-x-8--8---x-x-10--10--x-x-x-5-|
A|-2---1---2---1--*||-2---1---x-x-5--5---x-x-8--8---x-x--8---8--x-x-x-5-|
E|-0-------0-------||-0-------x-x--------x-x-6--6---x-x---------x-x-x-3-|
               3x

SECTION H: BOTH GUITARS

E|----------||-||------------------------------------------------------|
B|----------||-||*-----------------------------------------------------|
G|----------||-||------------------------------------------------------|
D|--5---x-x-||-||---8-9-10--9-8-7---8-9-10--9-8-7---6-7-8--7-6-5---6-7-|
A|--5---x-x-||-||*-----------------------------------------------------|
E|--3---x-x-||-||------------------------------------------------------|


E|------------|--------------------------------------------------------|
B|------------|--------------------------------------------------------|
G|------------|--------------------------------------------------------|
D|-8--7-6-5---|--8-9-10--9-8-7---8-9-10--9-8-7---6-7-8--7-6-5---6-7-8--|
A|------------|--------------------------------------------------------|
E|------------|--------------------------------------------------------|


E|---------------------------------------------------------------------|
B|---------------------------------------------------------------------|
G|---------------------------------------------------------------------|
D|-7-6-5---------------------------------------------------------------|
A|-----------6-7-8--7-6-5---6-7-8--7-6-5---4-5-6--5-4-3---4-5-6--5-4-3-|
E|---------------------------------------------------------------------|


E|---|--------------------------------------------------------------|-|
B|---|-------------------------------------------------------------*|-|
G|---|--------------------------------------------------------------|-|
D|---|--------------------------------------------------------------|-|
A|---|--6-7-8--7-6-5---6-7-8--7-6-5---4-5-6--5-4-3---4-5-6--5-4-3--*|-|
E|---|--------------------------------------------------------------|-|


SECTION I: BOTH GUITARS

E|----------------------------------------------|----------------------|
B|----------------------------------------------|----------------------|
G|---/-9-------------------(9)---------------\--|--/-9------------(9)--|
D|----------------------------------------------|----------------------|
A|---/-7-------------------(7)---------------\--|--/-7------------(7)--|
E|----------------------------------------------|----------------------|


SECTION J: BOTH GUITARS

E|---------------------------------------------------------------------|
B|---------------------------------------------------------------------|
G|---\--(8)---8---------(8)---------/-9-----------------\--3-----------|
D|---------------------------------------------------------------------|
A|---\--(6)---6---------(6)--------------------------------------------|
E|---------------------------------------------------------------------|


E|--------|------------------------------------------------------------|
B|--------|------------------------------------------------------------|
G|--------|--/--9------------------9-9--9h10-9-10-9-10-9h10-9-10-9-10--|
D|--------|------------------------------------------------------------|
A|--------|------------------------------------------------------------|
E|--------|------------------------------------------------------------|


E|---------------------------------------------|-----------------------|
B|---------------------------------------------|-----------------------|
G|-----9-----------------\--3------------------|--/--9-----------------|
D|---------------------------------------------|-----------------------|
A|---------------------------------------------|-----------------------|
E|---------------------------------------------|-----------------------|


SECTION K: BOTH GUITARS

E|---------------------------------------------------------------------|
B|---------------------------------------10----10-x-x-x----------------|
G|-----9h10-9-10-9-10-9h10-9-10-9-10------9-----9-x-x-x--9----9-x-x-x--|
D|----------------------------------------7-----7-x-x-x--9----9-x-x-x--|
A|-------------------------------------------------------7----7-x-x-x--|
E|---------------------------------------------------------------------|
                                         "Embezzling..."

E|---------------------------------|-----------------------------------|
B|-11----11-x-x-x------------------|--10----10-x-x-x----------------11-|
G|-10----10-x-x-x--10----10-x-x-x--|---9-----9-x-x-x--9----9-x-x-x--10-|
D|--8-----8-x-x-x--10----10-x-x-x--|---7-----7-x-x-x--9----9-x-x-x---8-|
A|------------------8-----8-x-x-x--|------------------7----7-x-x-x-----|
E|---------------------------------|-----------------------------------|
   "Indulging..."                     "I believe your nose is growing..."


E|-----------------------------------------------------------------------|
B|----11-x-x-x--------------------10----10-x-x-x----------------11----11-|
G|----10-x-x-x--10----10-x-x-x-----9-----9-x-x-x--9----9-x-x-x--10----10-|
D|-----8-x-x-x--10----10-x-x-x-----7-----7-x-x-x--9----9-x-x-x---8-----8-|
A|---------------8-----8-x-x-x--------------------7----7-x-x-x-----------|
E|-----------------------------------------------------------------------|
                                  "Extorting..."                "Not reporting..."


E|------------------------|---------------------------------------------|
B|-x-x-x------------------|--10----10-x-x-x----------------11----11-x-x-|
G|-x-x-x--10----10-x-x-x--|---9-----9-x-x-x--9----9-x-x-x--10----10-x-x-|
D|-x-x-x--10----10-x-x-x--|---7-----7-x-x-x--9----9-x-x-x---8-----8-x-x-|
A|---------8-----8-x-x-x--|------------------7----7-x-x-x---------------|
E|------------------------|---------------------------------------------|
                             "Your pockets are overflowing..."

SECTION L: BOTH GUITARS

E|---------------------------------------------------------------|-----|
B|-x-------------------------------------------------------------|-----|
G|-x--10----10---10----/-9-----------------\--3------------------|--/--|
D|-x--10----10---10----------------------------------------------|-----|
A|-----8-----8----8----/-7-----------------\---------------------|--/--|
E|--------------------------------------------6------------------|-----|
                         *  Guitar 1 plays top notes.


E|---------------------------------------------------------------------|
B|---------------------------------------------------------------------|
G|-9---------------------9h10-9-10-9-10-9h10-9-10-9-10------9----------|
D|---------------------------------------------------------------------|
A|-7---------------------7h-8-7--8-7--8-7h-8-7--8-7--8------7----------|
E|---------------------------------------------------------------------|


E|------------------------------|--------------------------------------------|
B|------------------------------|--------------------------------------------|
G|--------\--3------------------|--/--9---------------------10-------(10)b11-|
D|------------------------------|--------------------------------------------|
A|--------\---------------------|--/--7----------------------8--------(8)b9--|
E|-----------6------------------|--------------------------------------------|


         SECTION M: BOTH GUITARS

E|-------||--------------------------------------------|---------------|
B|-------||*-------------------------------------------|---------------|
G|-------||---5--------------4-------------------------|---------------|
D|-------||---5--------------4-------------------------|---------------|
A|-------||*--3--------------2------------/--8---------|--2-2----------|
E|-------||---3--------------2------------/--8---------|--3-3-0---0--0-|
              "Tell us one more thing..."

E|---------------------------------------------||-||--------------------|
B|--------------------------------------------*||-||*-------------------|
G|---------------------------------------------||-||--------------------|
D|---------------------------------------------||-||---5--------------4-|
A|--2-2-----------2-2----2-2----2-2-----------*||-||*--5--------------4-|
E|--3-3-0---0--0--3-3-0--3-3-0--3-3-0---0--0---||-||---3--------------2-|
                                                       "I see right through you..."

E|-------------------------|-------------------------------------------|
B|-------------------------|-------------------------------------------|
G|-------------------------|-------------------------------------------|
D|------------/--8---------|-------------------------------------------|
A|------------/--8---------|--2-2-----------2-2-----------2-2----2-2---|
E|-------------------------|--3-3-0---0--0--3-3-0---0--0--3-3-0--3-3-0-|


 SECTION N: GUITAR 2

E|-----------------||-||--------------------------------------------|--|
B|----------------*||-||*-------------------------------------------|--|
G|-----------------||-||---5--------------4-------------------------|--|
D|-----------------||-||---5--------------4-------------------------|--|
A|--2-2-----------*||-||*--3--------------2------------/--8---------|--|
E|--3-3-0---0--0---||-||---3--------------2------------/--8---------|--|


SECTION O: BOTH GUITARS

E|----------------------------------------------------------||-||------|
B|---------------------------------------------------------*||-||*-----|
G|----------------------------------------------------------||-||------|
D|----------------------------------------------------------||-||---2--|
A|-2-2-----------2-2-----------2-2----2-2----2-2-----------*||-||*--2--|
E|-3-3-0---0--0--3-3-0---0--0--3-3-0--3-3-0--3-3-0---0--0---||-||---0--|


E|-------------------------------------------|-------------------------|
B|-------------------------------------------|-------------------------|
G|------------------------------7/-9---8-----|-------------------------|
D|-------------4/-5---4---------7/-9---8-----|-------8/-9---8----------|
A|-------------4/-5---4---------5/-7---6-----|-------8/-9---8----------|
E|-------------2/-3---2---------5/-7---6-----|-------6/-7---6----------|

                         END: BOTH GUITARS

E|--------------------||----^---------------------------------------|---|
B|-------------------*||----^---------------------------------------|---|
G|--------------------||----^---------------------------------------|---|
D|--\-3---------------||----^2-------------------(2)----------------|---|
A|--\-3--------------*||----^2-------------------(2)----------------|-2-|
E|--\-1---------------||----^0-------------------(0)----------------|-0-|


E|---------------------------------------------*-|
B|---------------------------------------------*-|
G|---------------------------------------------*-|
D|---3------------3-------3-------3------------*-|
A|---1---2-2--2---1---2---1---2---1------------*-|
E|-------0-0--0-------0-------0----------------*-|


*****************************************************************************

WHY BOTHER


SECTION A: BOTH GUITARS

E|---------------------------------------------------|-----------------|
B|---------------------------------------------------|-----------------|
G|---------------3/-4--------------------------------|-----------------|
D|---------------3/-4--------3/-4--------2/-3--------|--------------3/-|
A|---------------------------3/-4--------2/-3--------|--------------3/-|
E|---0--0--0--0--------0--0--------0--0--------0--0--|--0--0--0--0-----|


E|----------------------------------------------------------------------|
B|----------------------------------------------------------------------|
G|--------------------------------------------------3/-4----------------|
D|-4--------3/-4--------2/-3----(3)-----------------3/-4--------3/-4----|
A|-4--------3/-4--------2/-3----(3)-----------------------------3/-4----|
E|----0--0--------0--0------------------0--0--0--0--------0--0--------0-|


SECTION B: BOTH GUITARS

E|-----------------|---------------------------------------------------|
B|-----------------|---------------------------------------------------|
G|-----------------|---------------------------------------------------|
D|-----2/-3--------|--------------3/-4--------3/-4--------2--3---------|
A|-----2/-3--------|--------------3/-4--------3/-4--------2--3---------|
E|--0--------0--0--|--0--0--0--0--------0--0--------0--0---------------|


E-------------------------------------------------|--------------------|
B-------------------------------------------------|--------------------|
G-------------3/-4--------------------------------|--------------------|
D-------------3/-4--------3/-4--------2/-3--------|--------------3/-4--|
A-------------------------3/-4--------2/-3--------|--------------3/-4--|
E-0--0--0--0--------0--0--------0--0--------0--0--|--0--0--0--0--------|


E|-----------------------------------------------------------------------|
B|-----------------------------------------------------------------------|
G|--------------------------------------------3/-4-----------------------|
D|-------3/-4--------2/-3---------------------3/-4--------3/-4--------2--|
A|-------3/-4--------2/-3---------------------------------3/-4--------2--|
E|-0--0--------0--0---------------0--0--0--0--------0--0--------0--0-----|


SECTION C: BOTH GUITARS

E|-----------|---------------------------------------------------------|
B|-----------|---------------------------------------------------------|
G|-----------|---------------------------------------------------------|
D|--3--------|--------------3/-4--------3/-4--------3------------------|
A|--3--------|--------------3/-4--------3/-4--------3------------------|
E|-----0--0--|--0--0--0--0--------0--0--------0--0--------------0----0-|


E|-----------------------------------------|----------------------------|
B|-----------------------------------------|----------------------------|
G|-----3/-4--------------------------------|----------------------------|
D|-----3/-4--------3/-4--------2/-3--------|-------------3/-4--------3--|
A|-----------------3/-4--------2/-3--------|-------------3/-4--------3--|
E|--0--------0--0--------0--0--------0--0--|--0----0--0--------0--0-----|


E|----------------------------------------------------------------------|
B|----------------------------------------------------------------------|
G|--------------------------------------3/-4----------------------------|
D|--4-----------------------------------3/-4--------3/-4--------2/-3----|
A|--4-----------{2}---------------------------------3/-4--------2/-3----|
E|-----0--0--0---------------0----0--0--------0--0--------0--0--------0-|

BRIDGE: BOTH GUITARS

E|-----|---------------------------------------------------------------|
B|-----|---------------------------------------------------------------|
G|-----|---------------------------------------------------------------|
D|-----|-------------3/-4--------3/-4--------3-----------2---------3---|
A|-----|-------------3/-4--------3/-4--------3-----------2---------3---|
E|--0--|--0----0--0--------0--0--------0--0--------------0---------1---|


E|----------------------------|----------------------------------------|
B|----------------------------|----------------------------------------|
G|----------------------------|----------------------------------------|
D|------4---3--------4--3-----|---------------4---3--------------------|
A|------2---1--4--3--2--1--4--|---------------2---1---4----------------|
E|-------------2--1--------2--|--0-0-0-0-0-0----------2----0-0-0-0-0-0-|


SECTION D: BOTH GUITARS

E|--------------||-----------------------------------------------------|
B|--------------||*----------------------------------------------------|
G|--------------||-----------------------------------------------------|
D|--4---3-------||----------------4---3---------------------4---3------|
A|--2---1---4---||*---------------2---1---4-----------------2---1---4--|
E|----------2---||---1-1-1-1-1-1----------2----1-1-1-1-1-1----------2--|
                     "Stop and look around..."              "At politics..."

SECTION E: BOTH GUITARS

E-|-----------------------------------------------------||--------------|
B-|----------------------------------------------------*||--------------|
G-|-----------------------------------------------------||--------------|
D-|---------------4---3---------------------4---3-------||--------------|
A-|---------------2---1---4-----------------2---1---4--*||---3----------|
E-|--0-0-0-0-0-0----------2----0-0-0-0-0-0----------2---||---1----1-1-1-|
                  "No, nothing's changed..." "It still remains..."

E|---------------------------------------|-----------------------------|
B|---------------------------------------|-----------------------------|
G|---------------------------------------|-----------------------------|
D|--------------------------------3/-2---|-----------------------------|
A|-3-------3----------4-----------1/-2---|--3---------3-------3--------|
E|-1----1--1--1-1-1-1-2----0-0-0---------|--1-----1-1-1----1--1--1-1-1-|


E|---------------------------------------------------------------------|
B|---------------------------------------------------------------------|
G|---------------------------------------------------------------------|
D|---------------1/-2------2--------2-------2-------3-----------1------|
A|---4-----------1/-2------2--------2-------2-------3-----------1------|
E|-1-2----0-0-0------------0-----0--0----0--0----0-------0-0-0---------|


E|---------------------------------------------------------------------|
B|---------------------------------------------------------------------|
G|---------------------------------------------------------------------|
D|--2--------2-------2-------3-----------1--------3--------3-------3---|
A|--2--------2-------2-------3-----------1--------3--------3-------3---|
E|--0-----0--0----0--0----0-------0-0-0-----------1-----1--1----1--1---|
                                                  "Why bother voting..."

E------------------------|---------------------------------------------|
B------------------------|---------------------------------------------|
G------------------------|---------------------------------------------|
D-----4-----------3/-2---|--3--------3-------3-------4-----------1/-2--|
A-----4-----------1/-2---|--3--------3-------3-------4-----------1/-2--|
E--0--2----0-0-0---------|--1-----1--1----1--1----0--2----0-0-0--------|
                            "It won't do us any good..."


E|------------------------------------------------|---------------------|
B|------------------------------------------------|---------------------|
G|------------------------------------------------|---------------------|
D|-----2--------2-------2-------3-----------1-----|--2--------2-------2-|
A|-----2--------2-------2-------3-----------1-----|--2--------2-------2-|
E|-----0-----0--0----0--0----0-------0-0-0--------|--0-----0--0----0--0-|
       "Octogenarian leaders..."                     "Telling us they would..."

SECTION F: BOTH GUITARS

E|--------------------------||-----------------------------------------|
B|--------------------------||*----------------------------------------|
G|--------------------------||-----------------------------------------|
D|-------3-----------1------||-----------------------------------------|
A|-------3-----------1------||*--------------------------1-1-1-1-------|
E|----0-------0-0-0---------||---1-1-1-1-1-1-1-1-2-2-2-2---------1-1-1-|
                                                 "I know there's got to be a way..."


E|---------------------------|-----------------------------------------|
B|---------------------------|-----------------------------------------|
G|---------------------------|-----------------------------------------|
D|---------------------------|-----------------------------------------|
A|-------------------1-1-1-1-|-------------------------1-1-1-1---------|
E|-1-1-1-1-1-2-2-2-2---------|-0-0-0-0-0-0-0-0-1-1-1-1---------0-0-0-0-|
                                               "To make a dent in the land of the free..."


E|---------------------------||--------------------------------------|-|
B|--------------------------*||--------------------------------------|-|
G|---------------------------||--------------------------------------|-|
D|---------------------------||--4----------------3--------3---------|-|
A|-----------------1-1-1-1--*||--4----------------3--------3---------|-|
E|-0-0-0-0-1-1-1-1-----------||--2----------------1--------1---------|-|


SECTION G: BOTH GUITARS

E|-----------------------------------||---------------------------------|
B|-----------------------------------||*--------------------------------|
G|-----------------------------------||---------------4-4-3-3-3-3-------|
D|-----------------------------------||---3-3-3-3-3-3-------------4-4-4-|
A|-----------------------------------||*--------------2-2-1-1-1-1-------|
E|-----------------------------------||---1-1-1-1-1-1-------------2-2-2-|
                                          *  Guitar 1 plays top notes on second passage only.


E|-----------------------------------|---------------------------------|
B|-----------------------------------|---------------------------------|
G|---------------4-4-3-3-3-3---------|-------------4-4-3-3-3-3---------|
D|-4-3-3-3-3-3-3-------------4-4-4-4-|-2-2-2-2-2-2-------------4-4-4-4-|
A|---------------2-2-1-1-1-1---------|-------------2-2-1-1-1-1---------|
E|-2-1-1-1-1-1-1-------------2-2-2-2-|-0-0-0-0-0-0-------------2-2-2-2-|


SECTION H: BOTH GUITARS

E|-----------------------------------||--------------------------------|
B|----------------------------------*||--------------------------------|
G|-------------4-4-3-3-3-3-----------||--------------------------------|
D|-2-2-2-2-2-2-------------4-4-4-4---||---4------------------4---------|
A|-------------2-2-1-1-1-1----------*||---4------------4--4--4---------|
E|-0-0-0-0-0-0-------------2-2-2-2---||---2------------2--2--2---------|
                                 6x

SECTION I: BOTH GUITARS

E|----------|-----------------------------------------||----------------|
B|----------|-----------------------------------------||*---------------|
G|----------|-----------------------------------------||----------------|
D|----------|--4--------------------4-----------------||----------------|
A|-----4--4-|--4--------------4--4--4-----------------||*---------------|
E|-----2--2-|--2--------------2--2--2-------x/---\----||---0----0--0--0-|


E|-----------------------------------|---------------------------------|
B|-----------------------------------|---------------------------------|
G|-----------------------------------|---------------------------------|
D|--------------------------------9--|---------------------------------|
A|--8-----------8-----------8--8-----|----------------8-----------8----|
E|-----0--0--0-----0--0--0-----------|--0----0--0--0-----0--0--0-----0-|


E|--------------------------------------------------------------------|
B|--------------------------------------------------------------------|
G|--------------------------------------------------------------------|
D|--------------6-------------------------------------------------9---|
A|--------8--8----------------------8-----------8-----------8--8------|
E|--0--0--------------0----0--0--0-----0--0--0-----0--0--0------------|


SECTION J: BOTH GUITARS

E|--------------------------------------------------||-||--------------|
B|-------------------------------------------------*||-||*-------------|
G|--------------------------------------------------||-||--------------|
D|-------------------------------------------8--8---||-||---2----------|
A|----------------8-----------8--------------8--8--*||-||*--2----------|
E|--0----0--0--0-----0--0--0-----0--0--0--0--6--6---||-||---0--0-0-0-0-|


E|-----------------------------------------------|----------------------|
B|-----------------------------------------------|----------------------|
G|-----------------------------------------------|----------------------|
D|-----2--------------2-----------------4--3-----|--3--------------3----|
A|-----2--------------2--------------2--2--1--4--|--3--------------3----|
E|-0-0-0--0-0-0-0-0-0-0--0-0-0-0-0-0-0--------2--|--1--1-1-1-1-1-1-1--1-|


END: BOTH GUITARS

E|-----------------------------------||---------------------------------|
B|----------------------------------*||---------------------------------|
G|-----------------------------------||---------------------------------|
D|--------------4--3-----------------||---2--------------2--------------|
A|-----------3--2--1-----5--4--3----*||---2--------------2--------------|
E|-1-1-1-1-1-1--------0--3--2--1-----||---0--0-0-0-0-0-0-0--0-0-0-0-0-0-|
                                  3x

E|----------------------------|----------------------------------------|
B|----------------------------|----------------------------------------|
G|----------------------------|----------------------------------------|
D|-2-----------------4--3-----|--2---------------2------------------4--|
A|-2--------------2--2--1--4--|--2---------------2---------------2--2--|
E|-0--0-0-0-0-0-0-0--------2--|--0--0-0-0-0-0-0--0--0-0-0-0-0-0--0-----|


E|-----------------------------------------------------------------|----|
B|-----------------------------------------------------------------|----|
G|-----------------------------------------------------------------|----|
D|-3--------------------4--3-------------------4--3----------------|----|
A|-1-----5--4--3-----2--2--1-----5--4--3----2--2--1-----5--4--3----|--2-|
E|----0--3--2--1-----0--------0--3--2--1----0--------0--3--2--1----|--0-|


E|--------------------------------------*-|
B|--------------------------------------*-|
G|--------------------------------------*-|
D|--4--3-----------3--------------------*-|
A|--2--1-----5--4--3--------------------*-|
E|--------0--3--2--1--------------------*-|


*****************************************************************************

LIFE

INTRO: GUITAR 1

E----------------------------------------------------------------------|
B----------------------------------------------------------------------|
G----------------------------------------------------------------------|
D----------------------------------------------------------------------|
A----------------------------------------------------------------------|
E--0-0-0-0-0-0--3-3-7-7-7-7-7-7--0-0-6-6-6-6-6-6-6-6--1-1-1-1--4-4-4-4-|


SECTION A: BOTH GUITARS

E--||-------------------------------------------------------------------|
B--||*------------------------------------------------------------------|
G--||-------------------4-4-4-4-4-4--5-5--------------------------------|
D--||---------------5-5------------------3-3-3-3-3-3-5-5----------1-1-1-|
A--||*----------------------------------------------------3-3-3-3-------|
E--||--0-0-0-0-0-0--3-3-7-7-7-7-7-7--0-0-6-6-6-6-6-6-6-6--1-1-1-1-4-4-4-|
                    *  Guitar 2 plays high notes.

SECTION B: GUITAR 2

E|-----||-||-----------------------------------------------------------|
B|----*||-||*----------------------------------------------------------|
G|-----||-||------------------4--------------3-------------------------|
D|-1---||-||---2-----------5--4-----------5--3---------------3----6----|
A|----*||-||*--2-----------5--2-----------5--1---------------3----6----|
E|-4---||-||---0--0-0-0-0--3-----0-0-0-0--3-----0-0-0-0-0-0--1----4----|
   5x

 SECTION C: GUITAR 1

E|--|-----------------------------------------------------------||-----|
B|--|----------------------------------------------------------*||-----|
G|--|-----------------4--------------3--------------------------||-----|
D|--|--2-----------5--4-----------5--3---------------3----6-----||-----|
A|--|--2-----------5--2-----------5--1---------------3----6----*||-----|
E|--|--0--0-0-0-0--3-----0-0-0-0--3-----0-0-0-0-0-0--1----4-----||---0-|


E|------------------------------------------------------|---------------|
B|------------------------------------------------------|---------------|
G|------------------------------------------------------|---------------|
D|------------------------------------------------8-----|---------------|
A|------------------------------------------------8-----|---------------|
E|-0--5b--6--7--6--5--6--5---0-0--5b--6--7--6--5--6-----|-0-0--5b--6--7-|


SECTION D: BOTH GUITARS

E|---------------------------------------------------------------------|
B|---------------------------------------------------------------------|
G|------------------------------------7--------------------------------|
D|------------------------------------7---6----------------------------|
A|------------------------------------5---6----------7--8--9--8--7--8--|
E|--6--5--6--5---0-0--5b--6--7--6--5------4-----0-0--5--6--7--6--5--6--|


E|--------------------------------|------------------------------------|
B|--------------------------------|------------------------------------|
G|--------------------------------|------------------------------------|
D|-------------------------8--8---|------------------------------------|
A|-7--------7--8--9--8--7--8--8---|------7--8--9--8--7--8--7--------7--|
E|-5---0-0--5--6--7--6--5--6--6---|-0-0--5--6--7--6--5--6--5---0-0--5--|


E|----------------------------------------------------------------------|
B|----------------------------------------------------------------------|
G|-------------7--------------------------------------------------------|
D|-------------7---6----------------------------------------------------|
A|-8--9--8--7--5---6----------7---8---9---8---7---8---7---------7---8---|
E|-6--7--6--5------4-----0-0--5-5-6-6-7-7-6-6-5-5-6-6-5-5--0-0--5-5-6-6-|


E|--------------------|------------------------------------------------|
B|--------------------|------------------------------------------------|
G|--------------------|------------------------------------------------|
D|-------------8--8---|------------------------------------------------|
A|-9---8---7---8--8---|------7---8---9---8---7---8---7---------7---8---|
E|-7-7-6-6-5-5-6--6---|-0-0--5-5-6-6-7-7-6-6-5-5-6-6-5-5--0-0--5-5-6-6-|

                      SECTION E: BOTH GUITARS

E|---------------------||-----------------------------------------------|
B|---------------------||*----------------------------------------------|
G|-------------7-------||-----------------------------------------------|
D|-------------7---6---||---0-0-0-0-0-0-0-0--3-3-3-3-3-3-3-3------------|
A|-9---8---7---5---6---||*------------------------------------2-2-2-2-3-|
E|-7-7-6-6-5-5-----4---||-----------------------------------------------|
                            "Numbness, see your fingers turn purple, would you rather burn..."


E|-------------------------|-------------------------------------------|
B|-------------------------|-------------------------------------------|
G|-------------------------|-------------------------------------------|
D|------------3-3----------|-0-0-0-0-0-0-0-0--3-3-3-3-3-3-3-3----------|
A|-2-2-2--3-3-----3-3-2-2--|-----------------------------------2-2-2-2-|
E|-------------------------|-------------------------------------------|
                             "Cast your life of agony, I'll dump your body in the sea..."


                                 BRIDGE 1: BOTH GUITARS

E|----------------------------||---------------------------------------|
B|---------------------------*||---------------------------------------|
G|----------------------------||---------------------------------------|
D|--------------3-3-----------||---------------------------------------|
A|-3-2-2-2--3-3-----3-3-2-2--*||------------------8-9------------15-16-|
E|----------------------------||--1h2-------------1h2-------------1h-2-|

 *  Guitar 1 plays top notes.

SECTION F: BOTH GUITARS

E|---------|-------------------------------------22-------\------------|
B|---------|-----------------------------------------------------------|
G|---------|-------------------17h18-----------------------------------|
D|---------|-15-16--------------------------------3-------------2------|
A|---------|--------------------------------------3-------------2------|
E|---------|--1h-2--------------1h-2--------------1-------------0--0-0-|


E--||-------------------------------------------------------------------|
B--||*------------------------------------------------------------------|
G--||-------------------------------------------------------------------|
D--||---------------9-----------------7------------------9--------------|
A--||*--8p7-----8p7--------8p7-----5---------8p7-----8p7--------8p7-----|
E--||-------0-0--------0-0-----0-0-------0-0-----0-0--------0-0-----0-0-|


BRIDGE 2: BOTH GUITARS

E|-------------||------------------------------------------------------|
B|------------*||------------------------------------------------------|
G|-------------||----------------4-------------------------------------|
D|----7--------||--2-------------4----5---------2----------------------|
A|-5----------*||--2-------------2----5---------2----------------------|
E|-------0-0---||--0------------------3---------0----------------------|
           4x

E|----------------|----------------------------------------------------|
B|----------------|----------------------------------------------------|
G|----------------|----------------------------------------------------|
D|----------------|---------------------9-9-9-9-9-9--10-10-------------|
A|----------------|--7-7-7-7-7-7--10-10--------------------8-8-8-8-8-8-|
E|-----x\---------|--0-------------------------------------------------|
                     *  Guitar one plays bottom note with dive.

SECTION G: GUITAR 2

E|-------------------------||-------------------------------------------|
B|-------------------------||*------------------------------------------|
G|-------------------------||-------------------------------------------|
D|-------------------------||----------------------9-9-9-9-9-9--10-10---|
A|--10-10---------6-6-6-6--||*--7-7-7-7-7-7--10-10--------------------8-|
E|--------8-8-8-8----------||-------------------------------------------|


E|-----------------------------------|---------------------------------|
B|-----------------------------------|---------------------------------|
G|-----------------------------------|---------------------------------|
D|-----------------------------------|--------------------9-9-9-9-9-9--|
A|-8-8-8-8-8--10-10---------6-6-6-6--|-7-7-7-7-7-7--10-10--------------|
E|------------------8-8-8-8----------|---------------------------------|

SECTION H: BOTH GUITARS

E|--------------------------------------------||-----------------------|
B|-------------------------------------------*||-----------------------|
G|--------------------------------------------||-----------------------|
D|-10-10--------------------------------------||--0-0-0-6-6-6--0-0-0-6-|
A|-------8-8-8-8-8-8--10-10---------6-6-6-6--*||-----------------------|
E|--------------------------8-8-8-8-----------||-----------------------|


E|-----------------------|---------------------------------------------|
B|-----------------------|---------------------------------------------|
G|-----------------------|---------------------------------------------|
D|-6-6--------------2----|--0-0-0-6-6-6--0-0-0-6-6-6--------------2----|
A|------------------2----|----------------------------------------2----|
E|------0-0-0-0-0-0-0----|----------------------------0-0-0-0-0-0-0----|


SECTION I: BOTH GUITARS

E-|---------------------------------------------------------------------|
B-|---------------------------------------------------------------------|
G-|---------------------------------------------------------------------|
D-|-0-0-0-6-6-6--0-0-0-6-6-6--------------2------0-0-0-6-6-6--0-0-0-6-6-|
A-|---------------------------------------2-----------------------------|
E-|---------------------------0-0-0-0-0-0-0-----------------------------|

END: BOTH GUITARS

E|-----------------------------------||--------------------------------|
B|-----------------------------------||--------------------------------|
G|-------3---------3---------3-------||--------------------------------|
D|-6--2--3--4--3---3--4--3---3--4----||--0-0-0-6-6-6--0-0-0-6-6-6--2---|
A|----2--1--4--3---1--4--3---1--4----||----------------------------2---|
E|----0-----2--1------2--1------2----||----------------------------0---|
                         *  Repeat Bridge 1.


*****************************************************************************

NO TRUTH


INTRO: ACOUSTIC GUITAR

E|---5------------2--------------------------5-----------|--4----------|
B|------2------------2----------6--------6------6--------|-------------|
G|------------2---------2-------------7------------7-----|-----------4-|
D|---------4---------------4-------7------------------7--|--------6----|
A|------------------------------5------------------------|-----6-------|
E|-------------------------------------------------------|--4----------|


E|---------------------------------------------------------------------|
B|---4------------7------------7---------------------------7-----------|
G|------4------------------8------8--------------------7------7--------|
D|---------6------------8------------8--------------9------------9-----|
A|------------6---6--6------------------9--------9------------------0--|
E|--------------------------------------------7------------------------|


E|---^5------------^5-----------|--4------------4-----------------------|
B|---^2------------^6--------6--|-----------4------4---------7----------|
G|---^2--------2---^7-----7-----|--------4------------4---------------8-|
D|---^------4------^---7--------|-----6------------------6---------8----|
A|---^---4---------^5-----------|----------------------------6--6-------|
E|---^2------------^------------|--4------------------------------------|


E|---2---------------------------2-------------^5------------5----------|
B|------------3---------------------2----------^6--------6------6-------|
G|---------4-----------------2---------2-------^7-----7------------7----|
D|------4-----------------4---------------4----^---7------------------7-|
A|---2-----------------4-----------------------^5-----------------------|
E|------------------2--------------------------^------------------------|


E|--|--4------------4------------2--------------------------------------|
B|--|-----------4------4-------------------------------4-----7----------|
G|--|--------4------------4-------------------3-----------------------7-|
D|--|-----6------------------6---1-----1--4------4--1--------------9----|
A|--|-------------------------------1---------------------------9-------|
E|--|--4-----------------------------------------------------7----------|


E|-----------------^5------------^4-----------|--^5------------^--------|
B|---7-------------^2------------^5--------5--|--^2------------^6-------|
G|------7----------^2--------2---^6-----6-----|--^2--------2---^7-----7-|
D|---------9-------^------4------^---6--------|--^------4------^---7----|
A|------------0----^---4---------^4-----------|--^---4---------^5-------|
E|-----------------^2------------^------------|--^2------------^--------|


E|------5------------4-------------^-5------------------(5)------------|
B|--6-------------------------5----^-2------------------(2)------------|
G|---------------2---------6-------^-2------------------(2)------------|
D|------------4---------6----------^-4------------------(4)------------|
A|---------4---------4-------------^-4------------------(4)------------|
E|------2--------------------------^-2------------------(2)------------|


SECTION A: GUITAR 1

E|-------||--------------------------------------||---------------------|
B|-------||--------------------------------------||*--------------------|
G|-------||--------------------------------------||-----7p-6--7------7--|p
D|-------||--------------------------------------||------------h-9------|
A|-------||--------------------------------------||*--------------------|
E|-------||--------------------------------------||---------------------|


E|------------------------------------|--------------------------------|
B|------------------------------------|--------------------------------|
G|--6--7------5p-4--5------5p-4--5----|--10p-9--10-------10p-9--10-----|
D|------h-9----------h-7----------h-7-|-----------h-12------------h-12-|
A|------------------------------------|--------------------------------|
E|------------------------------------|--------------------------------|


SECTION A: GUITAR 2

E|-----------------------------||-||-----------------------------------|
B|----------------------------*||-||*----------------------------------|
G|-----------------------------||-||--------------------------5--------|
D|---7p-6--7------7p-6--7------||-||---x-x-4------------------5--------|
A|----------h-9----------h-9--*||-||*--x-x-2-------x-x-6------3--------|
E|-----------------------------||-||---------------x-x-4---------------|
                           4x

SECTION B: GUITAR 1

E|---------------|------------------------------------------------||-----|
B|---------------|-----------------------------------------------*||-----|
G|---(5)---------|------------------------------------------------||-----|
D|---(5)---------|--x-x-2------------------4----------(4)---------||--7--|p
A|---(3)---------|--x-x-0-------x-x-2------4----------(4)--------*||-----|
E|---------------|--------------x-x-0------2----------(2)---------||-----|
                                                               4x


E---------------------------------------------------------------12/-14-|
B----------------------------------------------------------7/-9--------|
G----------------------------6h7-----------------------7h9-------------|
D-6-7---7p6-7----7p6-7---7h9------7p6-7---7p6-7----7h9-----------------|
A----h9------h9-------h9---------------h9------h9----------------------|
E----------------------------------------------------------------------|


SECTION B: GUITAR 2

E-|----------------------------------------------------||---------------|
B-|----------------------------------------------------||---------------|
G-|----------------------------------------------------||---------------|
D-|-7p6-7----7p6-7----7p6-7----------------------------||--4----4-----4-|
A-|------h9-------h9-------h9--9\------------/----\----||--4----4-----4-|
E-|----------------------------------------------------||--2----2-----2-|


E|---------------------------------|-----------------------------------|
B|---------------------------------|-----------------------------------|
G|---------------------------------|-----------------------------------|
D|----4-----4----4-----4----4------|-4-----4-----4-----4---------------|
A|----4-----4----4-----4----4------|-4-----4-----4-----4---------------|
E|----2-----2----2-----2----2------|-2-----2-----2-----2-------------/-|


SECTION C: BOTH GUITARS

E|---------||-------------------------------------------------------||--|
B|---------||-------------------------------------------------------||*-|
G|---------||-------------------------------------------------------||--|
D|---------||------4--3--2-------------------4--3--2----------------||--|
A|---------||---2--2--1--0---3--4--5--3---2--2--1--0---3--4--5--3---||*-|
E|----\----||---0------------1--2--3--1---0------------1--2--3--1---||--|


SECTION D: BOTH GUITARS

E------------------------------------------------------||-||-----------|
B-----------------------------------------------------*||-||*----------|
G------------------------------------------------------||-||-----------|
D-----4--3--2------------3------4--3--2------------3---||-||-------4-4-|
A--2--2--1--0---3--4--5--3---2--2--1--0---3--4--5--3--*||-||*--2-2-2-2-|
E--0------------1--2--3------0------------1--2--3------||-||---0-0-----|


E|-------------------------------------------------------------||-||---|
B|------------------------------------------------------------*||-||*--|
G|----------------------5-5------------------------------5-5---||-||---|
D|-3-3-2-2-----------------------4-4-3-3-2-2-------------------||-||---|
A|-1-1-0-0--3-3-4-4-5-5-3-3--2-2-2-2-1-1-0-0-3-3-4-4-5-5-3-3--*||-||*--|
E|----------1-1-2-2-3-3------0-0-------------1-1-2-2-3-3-------||-||---|


SECTION E: BOTH GUITARS

E-----------------------------------------------------||---------------|
B----------------------------------------------------*||---------------|
G----------------------------------------------4------||---------------|
D----4--3--2------------3------4--3--2----------------||-------4-4-3-3-|
A-2--2--1--0---3--4--5--3---2--2--1--0---3--4--5--3--*||---2-2-2-2-1-1-|
E-0------------1--2--3------0------------1--2--3--1---||---0-0---------|
                                *  Gtr. 1 plays bend last time only. "I am my own self-ruler..."

E|---------------------------------------------------------|-----------|
B|---------------------------------------------------------|-----------|
G|---------------------------------------------------------|-----------|
D|-2-2--------------3-3------4-4-3-3-2-2--------------5-5--|-----4-4-3-|
A|-0-0--3-3-4-4-5-5-3-3--2-2-2-2-1-1-0-0--3-3-4-4-5-5-3-3--|-2-2-2-2-1-|
E|------1-1-2-2-3-3------0-0--------------1-1-2-2-3-3------|-0-0-------|
                             "I need not any ministry..."        "I see our music scares you..."


SECTION F: BOTH GUITARS

E|------------------------------------------------------------||-------|
B|------------------------------------------------------------||*------|
G|------------------------------------------------------------||-------|
D|-3-2-2--------------3-3------4-4-3-3-2-2--------------5-5---||-------|
A|-1-0-0--3-3-4-4-5-5-3-3--2-2-2-2-1-1-0-0--3-3-4-4-5-5-3-3---||*------|
E|--------1-1-2-2-3-3------0-0--------------1-1-2-2-3-3-------||---3-3-|
                               "Can't you see that..."             "There's no truth in 
religion..."


E|---------------------------------------------------------------|------|
B|---------------------------------------------------------------|------|
G|---------------------------------------------------------------|------|
D|---------------------------------------------------------------|------|
A|---------------------------------------------------------------|------|
E|-3-3-3-3--2-2-2-2-2-2-2-2--2-2-2-2-2-2-2-2--2-2-2-2-2-2-2-2----|--2-2-|
                                                                    "A god we do not praise..."


E--------------------------------------------------------||-------------|
B-------------------------------------------------------*||-------------|
G--------------------------------------------------------||-------------|
D--------------------------------------------------------||-------------|
A--------------1h-2--1--2--1--2--1--2--1----------------*||-------------|
E-2-2-2-2-2-2-----------------------------3-3-3-3-3-3----||---3-3-3-3-3-|
                                                      3x      "There's no truth, we're 
own god and that's the only way..."


E|---------------------------------------------------------||----------|
B|---------------------------------------------------------||----------|
G|---------------------------------------------------------||----------|
D|--------------------------------------------5------------||----------|
A|--------------------------------------3-3-3-3--------4---||----------|
E|-3--2-2-2-2-2-2-2-2--2-2-2-2-2-2-2-2-----------2-2-2-2---||----------|


SECTION G: BOTH GUITARS

E|---------------------------------------------------------------------|
B|---------------------------------------------------------------------|
G|---------------------------------------------------------------------|
D|---------------------------------------------------------------------|
A|-------------------------------4/-5-------7-----5-----------------4/-|
E|-------------------------------2/-3--0-0--5---0-3--0-0-0-0-0-0-0--2/-|


E|--------------------|------------------------------------------------|
B|--------------------|------------------------------------------------|
G|--------------------|------------------------------------------------|
D|--------------------|------------------------------------------------|
A|-5-------7-----5----|---------4/-5-------7----5-----------------4/-5-|
E|-3--0-0--5---0-3----|-3-2-0-0-2/-3--0-0--5--0-3---0-0-0-3-2-0-0-2/-3-|


E|----------------------------------------------------------------------|
B|----------------------------------------------------------------------|
G|----------------------------------------------------------------------|
D|----------------------------------------------------------------------|
A|-------7----5-------------------4/-5-------7----5----------------4/-5-|
E|--0-0--5--0-3-----0-0-0-3-2-0-0-2/-3--0-0--5--0-3--0-0-0-3-2-0-0-2/-3-|


 SECTION H: GUITAR 1

E|------------||----------------------------------------||-------------|
B|------------||----------------------------------------||*------------|
G|------------||----------------------------------------||-------------|
D|------------||--2-------------------5-----------------||---7-7-7-7-7-|
A|-------7-7--||--2-------------------5-----------------||*------------|
E|--0-0--5-5--||--0-------------------3-----------------||-------------|
                                                             "People live their lives..."


E|-----------------------------------------------------------|----------|
B|-----------------------------------------------------------|----------|
G|----9-9-8-8-8-8-9-9-9-9---------------9-9-8-8-8-8----------|----------|
D|-7-----------------------7-7-7-7-7-7--------------6-6-6-6--|----------|
A|-----------------------------------------------------------|----------|
E|-----------------------------------------------------------|--4-4-4-4-|
                                                                "By something never seen..."


E|----------------------------------------------------------------------|
B|----------------------------------------------------------------------|
G|----------------------------------------------------------------------|
D|--------------------------------------------------------------------9-|
A|----------6--6--6--6-------------------6--6--6--6------7-7-7-7-7-7----|
E|-4-4-4-4--4--4--4--4--4-4-4-4-4-4-4-4--4--4--4--4---------------------|
                                                         "Dreaming all their lives..."


E|------------------------------------------------------|--------------|
B|------------------------------------------------------|--------------|
G|------------------------------------------------------|--------------|
D|-9-8-8-8-8-9-9-9-9---------------9-9-8-8-8-8-6-6-6-6--|--------------|
A|--------------------7-7-7-7-7-7-----------------------|--------------|
E|------------------------------------------------------|--4-4-4-4-4-4-|
                                                           "Of a place they've never been..."

SECTION H: GUITAR 2

E|-------------------------------------------------||-||---------------|
B|------------------------------------------------*||-||*--------------|
G|-------------------------------------------------||-||---------------|
D|-------------------------------------------------||-||---------------|
A|------6--6--6--6-------------------6--6--6--6---*||-||*--------------|
E|-4-4--4--4--4--4--4-4-4-4-4-4-4-4--4--4--4--4----||-||---5-5-5-5-5-5-|


E|---------------------------------------------------------|------------|
B|---------------------------------------------------------|------------|
G|---------------------------------------------------------|------------|
D|---------------------------------------------------------|------------|
A|--7-7-6-6-6-6-7-7-7-7---------------7-7-6-6-6-6-7-7-7-7--|------------|
E|-----------------------5-5-5-5-5-5-----------------------|--4-4-4-4-4-|

SECTION I: BOTH GUITARS

E|---------------------------------------------------||-||-------------|
B|--------------------------------------------------*||-||*------------|
G|---------------------------------------------------||-||-------------|
D|---------------------------------------------------||-||---2---------|
A|--------6--6--6--6-------------------6--6--6--6---*||-||*--2---------|
E|-4-4-4--4--4--4--4--4-4-4-4-4-4-4-4--4--4--4--4----||-||---0---------|
                                                  4x

E|--------------------------------------|--------------------------------|
B|--------------------------------------|--------------------------------|
G|--------------------------------------|--7h12-7-12-7-12-7-12-7-12-7-12-|
D|----------------------10--9------8\---|--------------------------------|
A|-----------x\--10--9---8--7--10--6\---|--------------------------------|
E|-----------x\---8--7----------8-------|--3h-6-3--6-3--6-3--6-3--6-3--6-|
                                           *  Guitar 1 plays top notes on second passage only.


E|---------------------------------------------------------------------|
B|---------------------------------------------------------------------|
G|-7-12-7-12-7\-6h11-6-11-6-11-6-11-6----------------------------------|
D|-------------------------------------------3------2------2--------2--|
A|-------------------------------------5-----1------2------2-----2--2--|
E|-3--6-3--6-3\-2h-5-2--5-2--5-2--5-2--3--0---------0---0--0--0--0--0--|


E|----------------------------------|----------------------------------|
B|----------------------------------|----------------------------------|
G|----------------------------------|----------------------------------|
D|------------------10--9------8\---|----------------------------------|
A|-------x\--10--9---8--7--10--6\---|----------------------------------|
E|-------x\---8--7----------8-------|--3h6-3-6-3-6-3-6-3-6-3-6-3-6-3-6-|


SECTION J: BOTH GUITARS

E|----------------------------------||---------------------------------|
B|---------------------------------*||---------------------------------|
G|----------------------------------||---------------------------------|
D|-----------------------------3----||---------------------------------|
A|-----------------------5-----1---*||-------0h1-------------2h3-0-----|
E|-3\-2h5-2-5-2-5-2-5-2--3--0-------||---0h3-----3-0-3---3h5-------3-5-|
                                         *  Bass lick


E|------------------------------------|---------------------------------|
B|------------------------------------|---------------------------------|
G|--3/-4-----5\-4---------------------|----------2h3-2---------------3--|
D|--1/-2-----3\-2-----------3---------|--1h2-2h3-------3-5-----------1--|
A|--------------------4/-5--1---------|---------------------------------|
E|-------0-0------0-0-2/-3----0-0-0-0-|---------------------0-0-0-0-----|


E|---------------------------------||-----------------------------------|
B|---------------------------------||*----------------------------------|
G|--4-------5\-4-------------------||----------2h3-2---------------3/-4-|
D|--2-------3\-2----------------3--||--1h2-2h3-------3-5-----------1/-2-|
A|------------------------4/-5--1--||*----------------------------------|
E|-----0-0--------0-0-0-0-2/-3-----||---------------------0-0-0-0-------|


E---------------------------------|-------------------------------------|
B---------------------------------|-------------------------------------|
G-------5\-4----------------------|---------2h3-2---------------3/-4----|
D-------3\-2-----------3----------|-1h2-2h3-------3-5-----------1/-2----|
A----------------4/-5--1----------|-------------------------------------|
E--0-0-------0-0-2/-3-----0-0-0-0-|--------------------0-0-0-0--------0-|


SECTION K: BOTH GUITARS

E----------------------------||-||-------------------------------------|
B---------------------------*||-||*------------------------------------|
G----5\-4--------------------||-||---4/-5-5/-6-x-x-4-x-x----4--x-x--4/-|
D----3\-2----------------3---||-||---2/-3-3/-4-x-x-2-x-x-4--2--x-x--2/-|
A------------------4/-5--1--*||-||*------------x-x---x-x-2-----x-x-----|
E-0--------0-0-0-0-2/-3------||-||-------------------------------------|
                         3x


E|-------------------------------||-------------------------------------|
B|------------------------------*||-------------------------------------|
G|-5-5/-6-x-x-4--x-x-------x-x---||---------------------4/-5-5/-6-x-x-4-|
D|-3-3/-4-x-x-2--x-x-4--3--x-x---||---------------------2/-3-3/-4-x-x-2-|
A|--------x-x----x-x-2--1--x-x--*||-------------------------------x-x---|
E|-------------------------------||-------------------------------------|
                             4x      "There's no truth..."

E|-----------*-|
B|-----------*-|
G|-x-x-------*-|
D|-x-x-4--2--*-|
A|-x-x-2--2--*-|
E|--------0--*-|

*****************************************************************************

            
            
Suggest correction
Creating personal tab
Creating personal tab
You can edit any tab online and save it as your Personal.

You can edit, replace or remove any tab part or add personal notes – all changes will be seen only by you.

Personal tabs can be accessed anytime from any device, even offline.
Learn more »
comments
print report bad tab
guest
You may want to rate the tab now too:
select rating
Wanna post a correction for this tab? Suggest correction