Oops, an error
Loading. Please wait.

I Love tab

version 3
version 3

Whole song

Interactive

by Athlete
533 views 1 this week
no commentswrite comment
1 2 3 4 5
3 more votes to show rating
add to favorites
×
Save as Personal and add changes to this tab that will be seen only by you. Learn more ›
×
You can save this tab as Personal to edit and correct it or add notes. All changes will be seen only by you. Learn more »
launch autoscroll
font size
0
reset
how to read this tab
guitar tuner
edit
Autoscroll
slow
fast
+/-
esc
set tempo
stop
Author
Difficulty
-------------------------------------------------------------------------------
                             I LOVE - Athlete
-------------------------------------------------------------------------------
Tabbed by: manic_monkey90
Email: is not for grabs

Tuning: Standard


The other tabs were just plain shoddy. You actually get the slide you hear in the song 
this tab. don't know if its how its played but it actually sounds right! Enjoy this 
song.

Intro & Verse

e|-----9-----9----9---12----12-/------2----2----4----5----5-------|
B|---9-----9----9----9----9---/-----2----2----2----2----2---------|
G|-9-----9----9----9----9----/----2----2----2----2-----2----------| (x4)
D|----------------------------------------------------------------|
A|----------------------------------------------------------------|
E|----------------------------------------------------------------|

Chorus (I love everybody here...)

e|---9---9----------4----4--------2--2--2---2----4------------|
B|--9---9---------4----4---------2--2--2----2----4------------|
G|-9---9---9----4----4-----4----2--2--2-----2----4------------| (x2)
D|------------------------------------------------------------|
A|------------------------------------------------------------|
E|------------------------------------------------------------|


Verse (x4) (Summers long gone out...)

Chorus (x4) (There is so much left to say)

Bridge: (People for miles...)

e|------------------------------------------------------------|
B|---5------4-------------------------------------------------|
G|---4------4-------5-----6-----------------------------------|
D|-----------------4-----6------------------------------------|
A|--4---------------------------------------------------------|
E|--------4------4-----5--------------------------------------|


Lyrics:
fire in me still
I feel out of my league
but you turn around and say to me that
I love everybody here
and I agree
I love everybody here

Summers long gone out
Sun comes up like its been about a year
But I dont mind if we drink again my friend cos,
there is so much left to say

There is so much left to say
There is so much left to say
There is so much left to say

People for miles
opening up
People for miles
and focusing on
we'd be ok if we had
answers to questions and rhymes and in reasons
should leave it to me to be all the four seasons

You see I love everybody here
And I agree I love everybody here
I love everybody here
I love everybody here
Well I love everybody here
I love everybody here
Life is beautiful for sure
Cos I love everybody here

            
            
Suggest correction
Creating personal tab
Creating personal tab
You can edit any tab online and save it as your Personal.

You can edit, replace or remove any tab part or add personal notes – all changes will be seen only by you.

Personal tabs can be accessed anytime from any device, even offline.
Learn more »
Give kudos to tab author, rate the tab!
1 2 3 4 5
comments
print report bad tab
guest
You may want to rate the tab now too:
select rating
Wanna post a correction for this tab? Suggest correction