Oops, an error
Loading. Please wait.

Imaginary Lover tab

version 1
version 1

Whole song

Interactive

4,038 views 3 this week
no commentswrite comment
1 2 3 4 5
3 more votes to show rating
add to favorites
×
Save as Personal and add changes to this tab that will be seen only by you. Learn more ›
×
You can save this tab as Personal to edit and correct it or add notes. All changes will be seen only by you. Learn more »
launch autoscroll
font size
0
reset
how to read this tab
guitar tuner
edit
Autoscroll
slow
fast
+/-
esc
set tempo
stop
#----------------------------------PLEASE NOTE---------------------------------#
#This file is the author's own work and represents their interpretation of the #
#song. You may only use this file for private study, scholarship, or research. #
#------------------------------------------------------------------------------##

                                 IMAGINARY LOVER
                      As recorded by Atlanta Rhythm Section
                       (From the 1978 Album CHAMPAGNE JAM)

Words and Music by Atlanta Rhythm Section
Arranged by Tone Jones

Gtr I (E A D G B E) - 'Electric Guitar (Jazz)'
Gtr II (E A D G B E) - 'Rock Organ'
Gtr III (E A D G B E) - 'Overdriven Guitar'
Gtr IV (E A D G B E) - 'Staff-7'
Gtr V (E A D G B E) - 'Staff-8'

 Intro
  Q=110
 4/4
  Gtrs I, III
  H    Q   Q     E  E E E +H       +Q   Q  Q  Q     E  E  +Q    +H
|------5---7--|--8--7---5-(5)----|-(5)-----5--7--|--8------------------|
|------5---8--|-10--8---8-(8)----|-(8)-----6--8--|-10-10-(10)--(10)----|
|------5---9--|-----9---9-(9)----|-(9)-----5--5--|----10-(10)--(10)----|
|---------10--|----10------------|---------------|-10-10-(10)--(10)----|
|-------------|------------------|---------------|---------------------|
|-------------|------------------|---------------|---------------------|


  H     Q   Q     E  E E E +H       +Q   Q  Q  Q     E  E  +Q    +H
|-----------7--|--8--7---5-(5)----|-(5)-----5--7--|--8------------------|
|------10---8--|-10--8---8-(8)----|-(8)-----6--8--|-10-10-(10)--(10)----|
|-------9---9--|-----9---9-(9)----|-(9)-----5--5--|----10-(10)--(10)----|
|------10--10--|----10------------|---------------|-10-10-(10)--(10)----|
|--------------|------------------|---------------|---------------------|
|--------------|------------------|---------------|---------------------|


 Chorus
  Q    Q   E  E  +E  E   +E  E +Q     E   E E  E
|-------------7--(7)-8-|-(8)-7-(7)----8--------8-|
|---------10--8--(8)---|-------------10--10---10-|
|------9---9--9--(9)-9-|-(9)-7-(7)----9---9----9-|
|-----10--10-10-(10)---|-----------------10------|
|-----12---------------|-------------------------|
|----------------------|-------------------------|
|
| Gtrs II, V
| E E  Q   E  E  +E  E   +E  E +E  E +H
|----------5--7--(7)-8-|-(8)-7-(7)-5-(5)---------|
|---5--5---------------|-------------------------|
|----------------------|-------------------------|
|----------------------|-------------------------|
|----------------------|-------------------------|
|----------------------|-------------------------|


   E E  E  E  +E   E  +Q       +E   E  +Q    E  E E  E
|------------------7--(7)---|--(7)--5--(5)---8-------8-|
|-10------10-(10)--8--(8)---|--(8)--5--(5)--10-10---10-|
|--9----9--9--(9)--9--(9)---|--(9)--5--(5)---9--9----9-|
|-10---10-10-(10)-10-(10)---|-(10)-------------10------|
|------12-------------------|--------------------------|
|---------------------------|--------------------------|
|
|  Q    E  E  +E   E  +E  E    +E   E  +H         Q
|----------5--(5)--7--(7)-8-|--(8)---------------------|
|-------5-------------------|------10-(10)-------------|
|---------------------------|--------------------------|
|---------------------------|--------------------------|
|---------------------------|--------------------------|
|---------------------------|--------------------------|


   E E E E +E  E  E  E    +Q   E E E E +E  E   E E +H     Q    +Q   H     Q
|-----------------8--8-|--(8)--7-8-7-5-(5)---|------------7--|-(7)--8----10--|
|-10---5-5-(5)-5-10-10-|-(10)--------------3-|-4-5-(5)-------|---------------|
|--9-9-5-5-(5)-5--9--9-|--(9)--7-9-7-5-(5)---|------------7--|-(7)--9----10--|
|-10-7-7-7-(7)-7-------|---------------------|---------------|---------------|
|----------------------|---------------------|---------------|---------------|
|----------------------|---------------------|---------------|---------------|
|
|  Q   E E +E  E  E  E    +Q   E E E E +E  E   E E +H     Q     W
|-----------------8--8-|--(8)--7-8-7-5-(5)---|---------------|---------------|
|----------------------|-------------------3-|-4-5-(5)-------|---------------|
|------9-9-(9)-9-------|---------------------|---------------|---------------|
|----------------------|---------------------|---------------|---------------|
|----------------------|---------------------|---------------|---------------|
|----------------------|---------------------|---------------|---------------|


   +Q    E  E  +Q     Q     E E +Q     E   E E  E
|-(10)----------------7---|-8-7-(7)----8--------8-|
|----------10-(10)----8---|-----------10--10---10-|
|-(10)---9--9--(9)----9---|-9-7-(7)----9---9----9-|
|-------10-10-(10)---10---|---------------10------|
|-------12----------------|-----------------------|
|-------------------------|-----------------------|
|
|   Q    E  E  +E  E +Q     E E +E  E +Q     Q
|-----------5--(5)-7-(7)--|-8-7-(7)-5-(5)---------|
|--------5----------------|-----------------------|
|-------------------------|-----------------------|
|-------------------------|-----------------------|
|-------------------------|-----------------------|
|-------------------------|-----------------------|


   E E  E  E  +E   E  +E   E    +E   E  +Q    E  E E  E
|------------------7--(7)--8-|--(8)-----------8-------8-|
|-10------10-(10)--8--(8)--8-|--(8)-10-(10)--10-10---10-|
|--9----9--9--(9)--9--(9)--9-|--(9)--9--(9)---9--9----9-|
|-10---10-10-(10)-10-(10)-10-|-(10)-10-(10)-----10------|
|------12--------------------|--------------------------|
|----------------------------|--------------------------|
|
|  Q    E  E  +E   E  +E   E    +E   E  +H         Q
|----------5--(5)--7--(7)--8-|--(8)---------------------|
|-------5--------------------|------10-(10)-------------|
|----------------------------|--------------------------|
|----------------------------|--------------------------|
|----------------------------|--------------------------|
|----------------------------|--------------------------|


   E E  E  E  +E   E  E  E    +E   E E E E E +E  E
|--------------------------|---------7-8-7-5-(5)---|
|-10-----------------13-13-|-(13)-13-------------3-|
|--9-9--9--9--(9)--9--9--9-|--(9)--9-7-9-7-5-(5)---|
|-10---10-10-(10)-10-------|-----------------------|
|------12-12-(12)-12-------|-----------------------|
|--------------------------|-----------------------|
|
|  Q    E  E  +E   E  Q       +E   E E E E E +Q
|---------------------8----|--(8)--8-7-8-7-5-(5)---|
|--------------------------|-----------------------|
|-------9--9--(9)--9-------|-----------------------|
|--------------------------|-----------------------|
|--------------------------|-----------------------|
|--------------------------|-----------------------|


  E E +Q   +H        +Q   Q     H
|------------------|--------------------|
|-4-5-(5)--(5)-----|-(5)----------------|
|------------------|--------------------|
|------------------|--------------------|
|------------------|--------------------|
|------------------|--------------------|
|
| E E +H        Q     Q   E  E  E E  Q
|------------------|--------12-10-8-10--|
|-4-5-(5)----------|--------------------|
|------------------|--------------------|
|------------------|--------------------|
|------------------|--------------------|
|------------------|--------------------|


   H                Q.   E    +E  E Q  Q.   E
|--------------------------|------------------|
|-------------------5----5-|--(5)---5--5----5-|
|-------------------5----5-|--(5)---5--5----5-|
|-------------------7----7-|--(7)------7------|
|--------------------------|------------------|
|--------------------------|------------------|
|
|  E  E  +S  S  E  +H         +Q    Q  H
|-12-10-(10)-8-------------|------------------|
|--------------10-(10)-----|-(10)-------------|
|--------------------------|------------------|
|--------------------------|------------------|
|--------------------------|------------------|
|--------------------------|------------------|


  +E   E   Q         Q.    E      +E  E +E   E  E  E  Q
|-------------------------------|-----------12-12-12-12-----|
|-(5)----------------5-----5----|-(5)-6-(6)----------12-----|
|-(5)----------------5-----5----|-(5)-5-(5)----------13-----|
|--------------------7----------|-----7-(7)-----------------|
|-------------------------------|---------------------------|
|-------------------------------|---------------------------|
|
|  E   E  +S  S  E  +Q   E S  S    Q     E   E  E  E  E  E
|-12--10-(10)-8------------8-10-|--8--------12-12-12-16-----|
|---------------10-(10)---------|-----------------------17--|
|-------------------------------|---------------------------|
|-------------------------------|---------------------------|
|-------------------------------|---------------------------|
|-------------------------------|---------------------------|


   E  E  +E   E  H        E   E  +Q    Q.    E
|-12------------------|------------------------|
|-12-15-(15)-13-13----|--12--13-(13)-----------|
|-13-14-(14)-14-14----|---------------14----14-|
|----14-(14)-14-14----|---------------14----14-|
|---------------------|---------------15----15-|
|---------------------|------------------------|
|
|  E  E  +E   E  H       +Q       Q    H
|---------------------|------------------------|
|-17-15-(15)-13-13----|-(13)-------------------|
|---------------------|------------------------|
|---------------------|------------------------|
|---------------------|------------------------|
|---------------------|------------------------|


   +Q       Q         Q.     E    E  E  +E   E  E  E  E  E
|------------------------------|---------------------------|
|------------------------------|---------------------------|
|-(14)-------------------------|---------------------------|
|-(14)---------------14-----14-|-14-15-(15)-------14-14-14-|
|-(15)---------------15-----15-|-15-15-(15)----15-15-15-15-|
|--------------------17-----17-|-17-17-(17)-13-17-17-17----|
|
|   E   E  +S  S  E  +Q   Q       H             Q     E  E
|--12--10-(10)-8---------------|---------------------------|
|----------------10-(10)-------|---------------------------|
|------------------------------|----------------------9--9-|
|------------------------------|---------------------------|
|------------------------------|---------------------------|
|------------------------------|---------------------------|


   E  E  +Q    E  E  +Q         E   E E  E  E E  E  E
|---------------------------|-------------------------|
|----12-(12)--13-12-(12)----|--13-------13------------|
|-14-12-(12)----------------|--14--14---14-14------14-|
|-14-14-(14)--14-12-(12)----|--14--14---14-14---14-14-|
|-15-15-(15)----------------|------15------15---15-15-|
|---------------------------|-------------------17----|
|
|  E  E  +Q    E  E  +E   E    +Q     Q     Q    E  E
|---------------------------|-------------------------|
|-10-12-(12)--13-12-(12)-10-|-(10)-----------------10-|
|---------------------------|--------------------9----|
|---------------------------|-------------------------|
|---------------------------|-------------------------|
|---------------------------|-------------------------|


   +E   E  +E   E  +E   E  +Q       E   E E  E  E  E  E  E
|-------------------------------|--------------------------|
|------12-(12)-13-(13)----------|--13-------13-------------|
|-(14)-12-(12)-12-(12)-14-(14)--|--14--14---14-14----------|
|-(14)-14-(14)-14-(14)-14-(14)--|--14--14---14-14----14-14-|
|-(15)-15-(15)-15-(15)-15-(15)--|------15------15----15-15-|
|-------------------------------|--------------------17-17-|
|
|  +E   E  +E   E  +E   E  +Q      +Q     Q     E  E  E  E
|-------------------------------|--------------------------|
|-(10)-12-(12)-13-(13)----------|--------------------12-13-|
|----------------------14-(14)--|-(14)---------------------|
|-------------------------------|-----------------14-------|
|-------------------------------|--------------------------|
|-------------------------------|--------------------------|


   +E   E  E  E  +E   E   E   E    E  E  +E   E  E  E  +Q
|-------------------------------|---------------------------|
|------------------------12--13-|-12-10-(10)----------------|
|---------17-17-(17)-17---------|---------------------------|
|-(14)-14-14-14-(14)-14--12--14-|-12-10-(10)-12-13-14-(14)--|
|-(15)-15-----------------------|---------------------------|
|-(17)-17-----------------------|---------------------------|
|
|  +Q      Q      E   E  +E   E    E  E  +E   E  E  E  +Q
|-------------------------------|---------------------------|
|-(13)----15-----13--12-(12)-13-|-12-10-(10)----------------|
|-------------------------------|---------------------------|
|-------------------------------|------------12-13-14-(14)--|
|-------------------------------|---------------------------|
|-------------------------------|---------------------------|


   +H.        Q       W
|------------------|---------------------------|
|------------------|---------------------------|
|------------------|---------------------------|
|-(14)-------------|---------------------------|
|------------------|---------------------------|
|------------------|---------------------------|
|
|  +Q   Q  Q  E  E    E E  E E  E  E  +S  S  E
|---------------12-|-10-8-10-8-12-10-(10)-8----|
|------------------|------------------------10-|
|------------------|---------------------------|
|-(14)-------------|---------------------------|
|------------------|---------------------------|
|------------------|---------------------------|


    Q.    E  +E  E  Q       Q.       E  +E   E   Q
|------------------------|-------------------------------|
|------------------------|-------------------------------|
|------------------------|-------------------------------|
|--14----14-(14)---14----|-14-------14-(14)--------------|
|--15----15-(15)---15----|-15-------15-(15)--------------|
|--17----17-(17)---------|-17----------------------------|
|
|  +H.              E  E    E  E  Q      E   E  +S  S  E
|---------------------12-|-10--8-10-----12--10-(10)-8----|
|-(10)-------------------|----------------------------10-|
|------------------------|-------------------------------|
|------------------------|-------------------------------|
|------------------------|-------------------------------|
|------------------------|-------------------------------|


    Q.     E  +E   E  +E   E    E  E  Q     E  E  +E   E
|----------------------------|---------------------------|
|-------------------------17-|-17-17-17----17-15-(15)-13-|
|----------------------------|-------16----16-14-(14)-14-|
|--14-----14-(14)-15-(15)----|-------18----18-14-(14)-14-|
|--15-----15-(15)-15-(15)----|---------------------------|
|--17-------------17-(17)----|---------------------------|
|
|  +Q   Q      Q       E   E    E  E  E  E  E  E  +E   E
|-------------------------12-|-12-12-16------------------|
|-(10)-----------------------|----------17-17-15-(15)-13-|
|----------------------------|---------------------------|
|----------------------------|---------------------------|
|----------------------------|---------------------------|
|----------------------------|---------------------------|


   H      E  E  +Q      Q.    E  +Q       Q
|--------------------|----------------------------|
|-13-----12-13-(13)--|----------------------------|
|-14-----------------|-14----14-(14)--------------|
|-14-----------------|-14----14-(14)--------------|
|--------------------|-15----15-(15)--------------|
|--------------------|----------------------------|
|
|  H.            Q      H         E   E  +S  S  E
|--------------------|-----------12--10-(10)-8----|
|-13-----------------|-------------------------10-|
|--------------------|----------------------------|
|--------------------|----------------------------|
|--------------------|----------------------------|
|--------------------|----------------------------|


    Q.     E  E  E  +E     E     E   E  Q   Q   Q
|----------------------------|-----------------------|
|----------------------------|-------------13--------|
|----------------------------|---------14--14--------|
|--14-----14-14-15-(15)------|------14-14--14--14----|
|--15-----15-15-15-(15)------|--15--15-15------15----|
|--17-----17-17-17-(17)---13-|--17--17---------------|
|
|  +Q   E  E  E  E  +S  S  E    +Q      Q   H
|---------12-12-10-(10)-8----|-----------------------|
|-(10)--------------------10-|-(10)------------------|
|----------------------------|-----------------------|
|----------------------------|-----------------------|
|----------------------------|-----------------------|
|----------------------------|-----------------------|


   +E   E E  E  +Q       Q        Q    Q   Q   Q
|------------------------------|-------------------|
|------------------------------|----------13-------|
|------14---14-(14)------------|----------14-------|
|-(14)-14---14-(14)-----15-----|-14---15--14--14---|
|-(15)------15-(15)-----17-----|-15---15------15---|
|------------------------------|------17-----------|
|
| Gtr III
|   E   E E  E  +E  S S  S S E    E E  Q   Q   E E
|------------------------------|-------------------|
|-------1----------------1---1-|-----------1-------|
|------------2--(2)-0-2----2---|--2-0----------2-0-|
|---2--------------------------|-------------------|
|------------------------------|-------------------|
|------------------------------|-------------------|


   +E   E E  E  +Q         Q        Q    Q   Q   Q
|--------------------------------|--------------------|
|-----------13-(13)--------------|----------13--------|
|------14---14-(14)-------12-----|------14--14--------|
|-(14)-14---14-(14)-------14-----|-14---14--14--14----|
|-(15)---------------------------|-15---15------15----|
|--------------------------------|--------------------|
|
|   E   E E  E  +S  S S S  S S E    E E  Q   Q   E E
|--------------------------------|--------------------|
|-------3----1--(1)--------1---1-|-----------1--------|
|---------------------0-2----2---|--2-0----------2-0--|
|---2----------------------------|--------------------|
|--------------------------------|--------------------|
|--------------------------------|--------------------|


   +E   E E  E  +Q       Q        Q    Q   Q     Q
|------------------------------|------------------------|
|------------------------------|----------13------------|
|------14---14-(14)------------|----------14------------|
|-(14)-14---14-(14)-----15-----|-14---15--14----14------|
|-(15)------15-(15)-----17-----|-15---15--------15------|
|------------------------------|------17----------------|
|
|   E   E E  E  +E  S S  S S E    E E  Q   E. S +S  E S
|------------------------------|------------------------|
|-------1----------------1---1-|-----------1----------3-|
|------------2--(2)-0-2----2---|--2-0---------2-(2)-0---|
|---2--------------------------|------------------------|
|------------------------------|------------------------|
|------------------------------|------------------------|


   Q       H          Q      +Q     H            Q
|---------12---------15---|-(15)---17-----------19---|
|---------13---------15---|-(15)---17-----------20---|
|-14------14---------16---|-(16)---17-----------19---|
|-14----------------------|--------------------------|
|-------------------------|--------------------------|
|-------------------------|--------------------------|
|
| +S  E S +Q   +E. S +Q      +E. S +Q   +E.  S  +Q
|-------5-(5)--(5)-7-(7)--|--(7)-8-(8)--(8)-10-(10)--|
|-(3)-1-------------------|--------------------------|
|-------------------------|--------------------------|
|-------------------------|--------------------------|
|-------------------------|--------------------------|
|-------------------------|--------------------------|


   +Q       Q     Q    Q      E   E  +E  E  +H
|-(19)-----------------7--|---8---7--(7)-5--(5)-----------|
|-(20)-----------------8--|--10---8--(8)-8--(8)-----------|
|-(19)-----------------9--|-------9--(9)-5--(5)-----------|
|----------------19---10--|------10-(10)------------------|
|----------------19-------|-------------------------------|
|----------------20-------|-------------------------------|
|
|  +E.  S  +Q    +H          +H             +E  E S  E  S
|-(10)-12-(12)--(12)------|-(12)-----------(12)-----------|
|------13-(13)--(13)------|-(13)-----------(13)-----------|
|-------------------------|-------------------------------|
|-------------------------|-------------------------14-12-|
|-------------------------|-------------------------------|
|-------------------------|-------------------------------|


   +Q          Q     Q    Q      E   E  +Q    +H
|--(5)---------------5----7--|---8-------------------|
|--(8)---------------5----8--|--10--10-(10)--(10)----|
|--(5)---------------5----9--|-------9--(9)---(9)----|
|------------------------10--|------10-(10)--(10)----|
|----------------------------|-----------------------|
|----------------------------|-----------------------|
|
|  +S   E  S  +Q    +H          +E   E   Q     H
|----------------------------|-----------------------|
|----------------------------|-----------------------|
|----------------------------|-----------------------|
|-(12)-10--------------------|-----------------------|
|---------12-(12)--(12)------|-(12)------------------|
|----------------------------|-----------------------|


   +Q     Q   E  E  +Q      E  E  +Q       E   E E  E
|----------------7--(7)--|--8--7--(7)------8--------8-|
|-(10)-------10--8--(8)--|----------------10--10---10-|
|--(9)----9---9--9--(9)--|--9--7--(7)------9---9----9-|
|-(10)---10--10-10-(10)--|--------------------10------|
|--------12--------------|----------------------------|
|------------------------|----------------------------|
|
| Gtrs II, V
|   E  E  Q   E  E  +Q      E  E  +E   E  +Q     Q
|------------------------|----------------------------|
|------------10-12-(12)--|-13-12-(12)-10-(10)---------|
|------9--9--------------|----------------------------|
|------------------------|----------------------------|
|------------------------|----------------------------|
|------------------------|----------------------------|


   E E  E  E  +E   E  +E   E    +E   E  +Q    E  E E  E
|------------------7--(7)--8-|--(8)-----------8-------8-|
|-10------10-(10)--8--(8)--8-|--(8)-10-(10)--10-10---10-|
|--9----9--9--(9)--9--(9)--9-|--(9)--9--(9)---9--9----9-|
|-10---10-10-(10)-10-(10)-10-|-(10)-10-(10)-----10------|
|------12--------------------|--------------------------|
|----------------------------|--------------------------|
|
|  Q    E  E  +E   E  +E   E    +E   E  +H         Q
|----------------------------|--------------------------|
|---------10-(10)-12-(12)-13-|-(13)---------------------|
|-------9--------------------|------14-(14)-------------|
|----------------------------|--------------------------|
|----------------------------|--------------------------|
|----------------------------|--------------------------|


   E E  E  E  +E   E  Q     +E   E  E  E  E  E  +E   E
|------------------------|----------7--8--7--5--(5)----|
|-10-----------------13--|-(13)-13-------------------3-|
|--9----9--9--(9)--9--9--|--(9)--9--7--9--7--5--(5)----|
|-10---10-10-(10)-10-----|-----------------------------|
|------12-12-(12)-12-----|-----------------------------|
|------------------------|-----------------------------|
|
|  Q    E  E  +E   E  Q     +E   E  E  E  E  E  +E   E
|------------------------|-----------------------------|
|--------------------13--|-(13)----12-13-12-10-(10)----|
|------------------------|-----------------------------|
|------14-14-(14)-14-----|--------------------------12-|
|------------------------|-----------------------------|
|------------------------|-----------------------------|


   E  E  +Q   +H        +Q   Q   H
|---------------------|---------------------|
|--4--5--(5)--(5)-----|-(5)-----------------|
|---------------------|---------------------|
|---------------------|---------------------|
|---------------------|---------------------|
|---------------------|---------------------|
|
|  E  E  +H        Q     H       E  E  E  E
|---------------------|---------------------|
|---------------------|---------15-13-15-13-|
|---------------------|---------------------|
|-13-14-(14)----------|---------------------|
|---------------------|---------------------|
|---------------------|---------------------|


   H               Q.   E    +E  E Q     Q.      E
|-------------------------|------------------------|
|------------------5----5-|--(5)---5-----5-------5-|
|------------------5----5-|--(5)---5-----5-------5-|
|------------------7----7-|--(7)---------7---------|
|-------------------------|------------------------|
|-------------------------|------------------------|
|
|  S  E.  S S  E  +H         +Q    E  E  E  E  Q
|-12-10--10-8-------------|----------12-10--8-10---|
|-------------10-(10)-----|-(10)-------------------|
|-------------------------|------------------------|
|-------------------------|------------------------|
|-------------------------|------------------------|
|-------------------------|------------------------|


  +E   E   Q         Q.    E   +E  E +E   E  E  E  Q
|----------------------------|-----------12-12-12-12------|
|-(5)----------------5-----5-|-(5)-6-(6)----------12------|
|-(5)----------------5-----5-|-(5)-5-(5)----------13------|
|--------------------7-------|-----7-(7)------------------|
|----------------------------|----------------------------|
|----------------------------|----------------------------|
|
|  E   E  +S  S  E  +Q   Q      Q     E   E  E  E  E  E
|-12--10-(10)-8--------------|-----------12-12-12-16------|
|---------------10-(10)------|-----------------------17---|
|----------------------------|----------------------------|
|----------------------------|----------------------------|
|----------------------------|----------------------------|
|----------------------------|----------------------------|


   E  E  +E   E  H        E   E  +Q    Q.    E
|-12------------------|------------------------|
|-12-15-(15)-13-13----|--12--13-(13)-----------|
|-13-14-(14)-14-14----|---------------14----14-|
|----14-(14)-14-14----|---------------14----14-|
|---------------------|---------------15----15-|
|---------------------|------------------------|
|
|  E  E  +E   E  H       +Q       Q    H
|---------------------|------------------------|
|-17-15-(15)-13-13----|-(13)-------------------|
|---------------------|------------------------|
|---------------------|------------------------|
|---------------------|------------------------|
|---------------------|------------------------|


   +Q       Q         Q.     E    E  E  +E   E  E  E  +E   E
|------------------------------|------------------16-(16)----|
|------------------------------|------------17-17-17-(17)-17-|
|-(14)-------------------------|------------17-17-16-(16)----|
|-(14)---------------14-----14-|-14-15-(15)-19-19------------|
|-(15)---------------15-----15-|-15-15-(15)------------------|
|--------------------17-----17-|-17-17-(17)------------------|
|
|   E   E  +S  S  E  +Q   E  E    E  E  +E   E  E  E  +E   E
|--12--10-(10)-8------------12-|-12-10-(10)-12-12-16-(16)----|
|----------------10-(10)-------|--------------------------17-|
|------------------------------|-----------------------------|
|------------------------------|-----------------------------|
|------------------------------|-----------------------------|
|------------------------------|-----------------------------|


   E  E  Q     Q.    E     E   E  +Q    Q.    E
|----------------------|------------------------|
|----------------------|------------------------|
|-19-17----------------|------------------------|
|-18----19----19-------|---------------19----19-|
|-19----19----19-------|---------------19----19-|
|-------------------17-|--19--20-(20)--20----20-|
|
|  E  E  E  E  H          +Q       Q    H
|----------------------|------------------------|
|-15-13-15-13-13-------|-(13)-------------------|
|----------------------|------------------------|
|----------------------|------------------------|
|----------------------|------------------------|
|----------------------|------------------------|


   +Q       Q         Q.     E    E  E  +E     E   E  E Q
|---------------------0------0-|--0--1--(1)-----------0-5----|
|---------------------1------1-|--1--1--(1)--------1--1-5----|
|---------------------2------2-|--2--2--(2)--------2--2-5----|
|-(19)-------------------------|---------------3-------------|
|-(19)-------------------------|-----------------------------|
|-(20)-------------------------|-----------------------------|
|
|   E   E  +S  S  E  +Q   E  E    E  E  +S  S  E  +Q    Q
|--12--10-(10)-8------------12-|-12-10-(10)-8----------------|
|----------------10-(10)-------|--------------10-(10)--------|
|------------------------------|-----------------------------|
|------------------------------|-----------------------------|
|------------------------------|-----------------------------|
|------------------------------|-----------------------------|


   Q   Q   +E   E E  E    +Q    E  E  E  E  Q
|--8-------------------|----------12-----------|
|-10-----------10---10-|-(10)--------15-13-----|
|--9---9---(9)--9----9-|--(9)--10--------------|
|-----10--(10)------10-|-(10)--12----14----15--|
|----------------------|-------------15----15--|
|----------------------|-------------------17--|


   Q   Q   +E   E  Q     +Q    E  E  +Q    Q
|---------------------|-----------------------|
|-13--------------13--|-(13)-----12-(12)------|
|-14-----------14-----|-------14-12-(12)--14--|
|-14--14--(14)-14-----|-------14-14-(14)--14--|
|-----15--(15)--------|-------15-15-(15)--15--|
|---------------------|-----------------------|


   Q   Q   +E   E E  E    +Q    Q   Q  Q
|----------------------|------------------*|
|-13-------------------|------------------*|
|-14-----------14---14-|-(14)-------------*|
|-14--14--(14)-14---14-|-(14)--15--14-----*|
|-----15--(15)------15-|-(15)--17--15-----*|
|----------------------|------------------*|


Duration Legend
---------------
W - whole; H - half; Q - quarter; E - 8th; S - 16th; T - 32nd; X - 64th; a - acciaccatura
+ - note tied to previous; . - note dotted; .. - note double dotted
Uncapitalized letters represent notes that are staccato (1/2 duration)
Irregular groupings are notated above the duration line
Duration letters will always appear directly above the note/fret number it represents the
duration for.  Duration letters with no fret number below them represent rests.  Multi-
bar rests are notated in the form Wxn, where n is the number of bars to rest for.  Low
melody durations appear below the staff

Tablature Legend
----------------
 h   - hammer-on
 p   - pull-off
 b   - bend
 pb  - pre-bend
 r   - bend release (if no number after the r, then release immediately)
 /\  - slide into or out of (from/to "nowhere")
 s   - legato slide
 S   - shift slide
  - natural harmonic
[n]  - artificial harmonic
n(n) - tapped harmonic
 ~   - vibrato
 tr  - trill
 T   - tap
 TP  - trem. picking
 PM  - palm muting
\n/  - tremolo bar dip; n = amount to dip
 \n  - tremolo bar down
 n/  - tremolo bar up
/n\  - tremolo bar inverted dip
 =   - hold bend; also acts as connecting device for hammers/pulls
 <>  - volume swell (louder/softer)
 x   - on rhythm slash represents muted slash
 o   - on rhythm slash represents single note slash

Misc Legend
-----------
 |  - bar
||  - double bar
||o - repeat start
o|| - repeat end
*|  - double bar (ending)
 :  - bar (freetime)
 $  - Segno
 &  - Coda
Tempo markers -  = BPM(8/16=s8/s16), where s8 = swing 8ths, s16 = swing 16ths


***************************************************************************************
* Generated using Power Tab Editor by Brad Larsen - http://powertab.guitarnetwork.org *
***************************************************************************************

            
            
Suggest correction
Creating personal tab
Creating personal tab
You can edit any tab online and save it as your Personal.

You can edit, replace or remove any tab part or add personal notes – all changes will be seen only by you.

Personal tabs can be accessed anytime from any device, even offline.
Learn more »
Give kudos to tab author, rate the tab!
1 2 3 4 5
comments
print report bad tab
guest
Wanna post a correction for this tab? Suggest correction