Oops, an error
Loading. Please wait.

You tab

8,220 views 3 this week
2 commentsread comments
1 2 3 4 5
1 last vote to show rating
add to favorites
×
Save as Personal and add changes to this tab that will be seen only by you. Learn more ›
×
You can save this tab as Personal to edit and correct it or add notes. All changes will be seen only by you. Learn more »
launch autoscroll
font size
0
reset
how to read this tab
guitar tuner
edit
Autoscroll
slow
fast
+/-
esc
set tempo
stop
Author
-------------------------------------------------------------------------------
                             Atmosphere - You
-------------------------------------------------------------------------------
Tabbed by: Seth
Email: sethgamin@yahoo.com

Tuning: Standard


Intro

e|---------------------------------------------------------------------------|
B|---------------------------------------------------------------------------|
G|-5xx5xx5xx4-5--------------------------------------------------------------|
D|-5xx5xx5xx4-5--------------------------------------------------------------|
A|-3xx3xx3xx2-3--------------------------------------------------------------|
E|---------------------------------------------------------------------------|

Verse played througout entire song...

e|----------------------------P---------------------------------------------------------|
B|----------------------------A---------------------------------------------------------|
G|----------------------------U---------------------------------------------------------|
D|-2-2-2-xx--3-3-3-xx--3-3-3--S--3-2-1--------------------------------------------------|
A|-2-2-2-xx--3-3-3-xx--5-5-5--E--5-4-3--------------------------------------------------|
E|-0-0-0-xx--1-1-1-xx--5-5-5-----5-4-3--------------------------------------------------|


===============================================================================

            
            
Suggest correction
Creating personal tab
Creating personal tab
You can edit any tab online and save it as your Personal.

You can edit, replace or remove any tab part or add personal notes – all changes will be seen only by you.

Personal tabs can be accessed anytime from any device, even offline.
Learn more »
Give kudos to tab author, rate the tab!
1 2 3 4 5
comments
print report bad tab
2 comments total.
+1 reply
x123seth321x 52 Dec 11, 2008 03:59 PM

I messed the verse up... I wish you could edit your tabs, but I guess Ultimate-Guitar is a pretty crappy site. I added tabs for "Always Coming Back Home To You" that are 100% accurate, but they didn't take them for some reason, instead you have retarded tabs for it.

e|----------------------------P---------------------------------------------------------|
B|----------------------------A---------------------------------------------------------|
G|-2-2-2---------------5-5-5--U--5-4-3--------------------------------------------------|
D|-2-2-2-xx--3-3-3-xx--5-5-5--S--5-4-3--------------------------------------------------|
A|-0-0-0-xx--3-3-3-xx--3-3-3--E--3-2-1--------------------------------------------------|
E|-------xx--1-1-1-xx-------------------------------------------------------------------|

0 reply
deprivedwriter 67 Feb 01, 2009 06:01 AM

That's why they let you preview it before you submit it...

guest
You may want to rate the tab now too:
select rating
Wanna post a correction for this tab? Suggest correction