Oops, an error
Loading. Please wait.
We have an official Becoming The Bull tab made by UG professional guitarists. Check out the tab »
×
by Atreyu
5,992 views 1 this week
2 commentsread comments
1 2 3 4 5
x 6
add to favorites
×
Save as Personal and add changes to this tab that will be seen only by you. Learn more ›
×
You can save this tab as Personal to edit and correct it or add notes. All changes will be seen only by you. Learn more »
launch autoscroll
font size
0
reset
how to read this tab
guitar tuner
edit
Autoscroll
slow
fast
+/-
esc
set tempo
stop
Author
-------------------------------------------------------------------
                        Becoming the Bull - Atreyu
-------------------------------------------------------------------
Tabbed By: Colter Ulrich
Email: colteru@pennswoods.net

Tuning: Drop C (C-G-C-F-A-D)

      Please comment and rate, and tell me if you think a part is wrong.  Also, if it doesn't
      say guitar 1 or guitar 2, that just means that they both are playing the same thing.  I'm
      pretty sure that this is 99% right.  Have fun!  
    



Intro:

D|---------------------------------------------------------------------------------|
A|---------------------------------------------------------------------------------|
F|---------------------------------------------------------------------------------|
C|--------------------------7-6----------------(x3)--------------7-----------------| (Then repeat
G|----------------8-5~-5-8------8--10-8-----------------8-5~-5-8------0-0-0-0-0-3--| that again, but
C|--0-17\----0-0------------------------10-8--------0-0---------------0-0-0-0-0-3--| put a pinch
             . .                                    . .               . . . . .      harmonic on the
Verse:                                                                               last note)
                                                                            
D|-----------------------------------------------------------------------|
A|-----------------------------------------------------------------------|
F|-----------------------------------------------------------------------|
C|----------------7-6----------------(x3)--------------7-----------------| 
G|------8-5~-5-8-------8--10-8----------------8-5~-5-8------0-0-0-0-0-3--| 
C|--0-0-----------------------10-8--------0-0---------------0-0-0-0-0-3--| 
    . .                                   . .               . . . . .
                                                                    

D|-----------------------------------------|
A|-----------------------------------------|
F|-----------------------------------------|
C|----------------7-6----------------(x4)--| 
G|------8-5~-5-8-------8--10-8-------------| 
C|--0-0-----------------------10-8---------|
    . .  
                                             
Pre-chorus:                                                             
D|--------------------------------|
A|--------------------------------|
F|--------------------------------|
C|--------------------------------|
G|--------------------------------|
C|--8-5-0-8-5-0-8-5-0-8-5-0-xxxx--|

Chorus:
Guitar 1
D|----------------------------------------------------------------------|
A|----------------------------------------------------------------------|
F|----------------------------------------------------------------------|
C|------------------------------------5-5-5-5-5-5-5-5-------------------|
G|--8-8-8-8-8-8-8-8--0-0-0-0-0-0-0-0--3-3-3-3-3-3-3-3--5-5-5-5-5-5-5-5--|
C|--8-8-8-8-8-8-8-8--0-0-0-0-0-0-0-0-------------------5-5-5-5-5-5-5-5--|
                                                                                         x2     
D|-------------------------------------------------------------------------------|     
A|-------------------------------------------------------------------------------|
F|-------------------------------------------------------------------------------|
C|------------------------------------5-5-5-5-5-5-5-5--5-5-5-5-5-5-5-5--x-x-x-x--|
G|--8-8-8-8-8-8-8-8--0-0-0-0-0-0-0-0--3-3-3-3-3-3-3-3--2-2-2-2-2-2-2-2--x-x-x-x--|
C|--8-8-8-8-8-8-8-8--0-0-0-0-0-0-0-0---------------------------------------------|

Guitar 2 (does this the second time around, but the first time just play the same as guitar 1)
D|------------------------------------------------------------------------------|
A|------------11-10~-------------11-10------------------------------------------|
F|---------10-----------------10--------(x2)------------------------------------| 
C|--8h10p8------------0-13p12---------------------------------------------------|
G|--------------------------------------------8-8-8-8-8-8-8-8--0-0-0-0-0-0-0-0--|
C|--------------------------------------------8-8-8-8-8-8-8-8--0-0-0-0-0-0-0-0--|

D|-------------------------------------|
A|-------------------------------------|
F|-------------------------------------|
C|--5-5-5-5-5-5-5-5--5-5-5-5--5-5-5-5--|
G|--3-3-3-3-3-3-3-3--2-2-2-2--2-2-2-2--|
C|-------------------------------------|

Post-Chorus:

D|-----------------------------------------------------------------------|
A|-----------------------------------------------------------------------|
F|-----------------------------------------------------------------------|
C|----------------7-6----------------------------------7-----------------| 
G|------8-5~-5-8-------8--10-8----------------8-5~-5-8------0-0-0-0-0-3--| 
C|--0-0-----------------------10-8--------0-0---------------0-0-0-0-0-3--| 
    . .                                   . .               . . . . .

Verse 2:
D|-------------------------------------------------------------|
A|-------------------------------------------------------------|
F|-------------------------------------------------------------|
C|-------------------------------------------------------------|
G|--0-0---0-0---0-0-0---0-0---0-0---0-0---0-0-0---0-0-0-0-0-3--|
C|--0-0---0-0---0-0-0---0-0---0-0---0-0---0-0-0---0-0-0-0-0-3--|
    . .   . .   . . .   . .   . .   . .   . . .   . . . . . 

D|-----------------------------------------------------------------------|
A|-----------------------------------------------------------------------|
F|---------------------------------------------------------xxxx----------|
C|----------------7-6----------------(x3)--------------7---xxxx----------| 
G|------8-5~-5-8-------8--10-8----------------8-5~-5-8-------------------| 
C|--0-0-----------------------10-8--------0-0----------------------------| 
    . . 
                                  . .
Guitar 2:
D|-------------------------------------------------------------|
A|-------------------------------------------------------------|
F|-------------------------------------------------------------|
C|-------------------------------------------------------------| 
G|--0-0---0-0---0-0-0---0-0---0-0---0-0---0-0-0---0-0-0-0-0-3--|
C|--0-0---0-0---0-0-0---0-0---0-0---0-0---0-0-0---0-0-0-0-0-3--|
    . .   . .   . . .   . .   . .   . .   . . .   . . . . . 


D|-------------------------------------------------------------|
A|-------------------------------------------------------------|
F|-------------------------------------------------------------|
C|-------------------------------------------------------------| 
G|--0-0---0-0---0-0-0---0-0---0-0---0-0---0-0-0---xxxx---------|
C|--0-0---0-0---0-0-0---0-0---0-0---0-0---0-0-0---xxxx---------|
    . .   . .   . . .   . .   . .   . .   . . .  

Pre-chorus:                                                             
D|-------------------------------------|
A|-------------------------------------|
F|---------------------------xxxx------| (Use a phaser effect pedal for this part, if you have one)
C|---------------------------xxxx------|
G|-------------------------------------|
C|--8-5-0-8-5-0-8-5-0-8-5-0------------|


**Repeat the Chorus**


Post-Chorus:
D|----------------------------------------------------------|
A|----------------------------------------------------------|
F|----------------------------------------------------------|
C|----------------------------5-5--5-5-5--5-5-5--5-5-5-5-5--|
G|--8-8--8-8-8-0-0--0-0-0--0--3-3--3-3-3--3-2-2--2-2-2-2-2--|
C|--8-8--8-8-8-0-0--0-0-0--0--------------------------------|

Bridge:   (It's hard to hear so I added some lyrics to keep ya on track, 
           but they don't align with the notes exactly right, but close.) 
Guitar 1
D|---------------------------------|
A|--10-----10--8s6--6s3--3s6--6s1--|
F|---------------------------------|
C|---------------------------------|
G|---------------------------------|
C|---------------------------------|

Guitar 2 (clean tone)
D|--------0------------8-----13--|
A|--11----10-----------11----10--|
F|--10----10-----------10----10--|
C|--8-----0------------8-----0---|
G|--8-----0------------8-----0---|
C|--8-----0------------8-----0---|

but this walk.....
D|--8-----8------0------------8----8-------13--13-----|
A|--11-------11--10--10-------11------11---11-----10--|
F|--10-----------10------10---10-----------10---------|
C|--8------------0------------8-------------0---------|
G|--8------------0------------8-----------------------|
C|--8------------0------------8-----------------------|

No one can touch you when...
D|----15s18--17-----------------------------------------|
A|--------------18--15--15~--13--15--18s17--17s13--13~--|
F|------------------------------------------------------|
C|------------------------------------------------------|
G|------------------------------------------------------|
C|------------------------------------------------------|

Guitar 2
D|--8----------------0------------------8----8--------13--|
A|--11----------11---10----10----------11---------11--11--|
F|--10---------------10--------10------10-------------10--|
C|--8----------------0------------------8-------------0---|
G|--8----------------0------------------8-----------------|
C|--8----------------0------------------8-----------------|

Breakdown:

Guitar 1
D|-------------------------------------------------------------|
A|-------------------------------------------------------------|
F|-------------------------------------------------------------|
C|-------------------------------------------------------------|
G|--------------------------------------------------------0-3--|
C|--8-5-0-8-5-0-8-5-0-8-5-0-7-10-7-0-10-7-0-10-7-0-10-7-0-0-3--|

Guitar 2
D|-------------------------------------------------------------|
A|-------------------------------------------------------------|
F|-------------------------------------------------------------|
C|-------------------------------------------------------------|
G|-------------------------0--0---------------------------0-3--|
C|-------------------------0--0---------------------------0-3--|
                           .  .                           . .

D|--------------------------------------------------------------|
A|--------------------------------------------------------------|
F|--------------------------------------------------------------|
C|--------------------------------------------------------------|
G|--------------------------------------------------------------|
C|--8-5-0-8-5-0-8-5-0-8-5-0-8-11-8-0-11-8-0-11-8-0-11-8-0-0000--|
                                                          ....

D|----------------------------------------------------------|
A|----------------------------------------------------------|
F|----------------------------------------------------------|
C|----------------------------------------------------------|
G|----------------------------------------------------------|
C|-8-5-0-8-5-0-8-5-0-8-5-0-7-10-7-0-10-7-0-10-7-0-10-7-0-5--|

D|----------------------------------------------------------------|
A|----------------------------------------------------------------|
F|----------------------------------------------------------------|
C|----------------------------------------------------------------|
G|---------------------------------------------------------0-0-0--|
C|--8-5-0-8-5-0-8-5-0-8-5-0-8-11-8-0-11-8-0-11-8-0-11-8-0--0-0-0--|
                                                           . . .
Interlude:
           (This is actualy piano, but I arranged it for guitar)

D|------------18-17----18-17-15---------------18-17--|
A|--15--17-18-------------------18-15---17-18--------|
F|---------------------------------------------------|
C|---------------------------------------------------|
G|---------------------------------------------------|
C|---------------------------------------------------|

D|--------------|
A|--------------|
F|--xxxxx-------|
C|--xxxxx-------|
G|--------------|
C|---------17\--|


**Repeat the Chorus**


Outro:8
Guitar 1
D|--------------------------------------|
A|------------11-10~------------11-10~--|
F|---------10----------------10---------|
C|--8h10-8-------------10-10------------|
G|--------------------------------------|
C|--------------------------------------|

Guitar 2:
D|----------------------------------------------------------------------|
A|----------------------------------------------------------------------|
F|----------------------------------------------------------------------|
C|------------------------------------5-5-5-5-5-5-5-5-------------------|
G|--8-8-8-8-8-8-8-8--0-0-0-0-0-0-0-0--3-3-3-3-3-3-3-3--5-5-5-5-5-5-5-5--|
C|--8-8-8-8-8-8-8-8--0-0-0-0-0-0-0-0-------------------5-5-5-5-5-5-5-5--|

Guitar 1:
D|----------------------------12h13p12-12h13-13h15-15\----------|  (That last thing is a whammy dive
A|-------------------10h11p10-------------------------\------/--|    that you bring up almost to 
F|----------10h12p10-----------------------------------\----/---|    where you started out at)
C|--8h10p8----------------------------------------------\--/----|
G|-------------------------------------------------------\/-----|
C|--------------------------------------------------------------|

D|-------------------------------------------------------------|
A|-------------------------------------------------------------|
F|-------------------------------------------------------------|
C|-----------------5-5-5-5-5-5-5-5-7-7-7-7-7-7-7-7-7-7--7-5-5--|
G|-8-8-8-8-8-8-8-8-3-3-3-3-3-3-3-3-4-4-4-4-4-4-4-4-5-5--5-3-3--|
C|-8-8-8-8-8-8-8-8---------------------------------------------|

Guitar 1
D|--17-17p15p13-15-15p13p12----13-13p12p10-----12-12p10p8-----|
A|--------------------------13--------------11------------10--|
F|------------------------------------------------------------|
C|------------------------------------------------------------|
G|------------------------------------------------------------|
C|------------------------------------------------------------|

Guitar 2
D|------------------------------|
A|------------------------------|
F|------------------------------|
C|------------------------------|
G|-8-8--8-8-8--0-0-0--0-0-0--0--|
C|-8-8--8-8-8--0-0-0--0-0-0--0--|
        .      .      .      . 

Guitar 1
D|---------------------------------------------|
A|----------------------5-5-5------------------|
F|---------7-7-7---------------------5-5-5-4*--|  (In case you can't tell, all of those are palm
C|----------------7-7-7--------7-7-7-----------|   muted, except the last note, which is a 4).
G|--5-5-5--------------------------------------|
C|---------------------------------------------|
    . . .  . . .  . . . . . .  . . . . . .

Guitar 2
D|----------------------------|
A|----------------------------|
F|----------------------------|
C|--5-5--5-5-5--5-5-5--5-5-5--|
G|--3-3--3-3-3--3-2-2--2-2-2--|
C|----------------------------|
         .      .

Guitar 1 and 2
D|--------------------------------------------------|
A|--------------------------------------------------|
F|--------------------------------------------------|
C|---------------7-6-----------------(x3)-----------|
G|-----8-5~-5-8-------8--10-8--------------0-0-0-0--|
C|-0-0------------------------10-8---------0-0-0-0--|
   . .                                     . . . .

| 
| s  slide 
| h  hammer-on
| p  pull-off
| ~  vibrato
| *  harmonic
| .  Mute note                 Well, that's about it.  Enjoy!!
===============================================================================

            
            
Suggest correction
Creating personal tab
Creating personal tab
You can edit any tab online and save it as your Personal.

You can edit, replace or remove any tab part or add personal notes – all changes will be seen only by you.

Personal tabs can be accessed anytime from any device, even offline.
Learn more »
comments
print report bad tab
2 comments total.
0 reply
FranKLynn 20 Jun 28, 2009 11:45 AM

excellent, i use pull-offs in the verse but whatever great job

0 reply
Aircroth 31 May 22, 2010 11:05 PM

You did an amazing job man, everything in this tab is perfect just one small correction in the breakdown

D|--8---8--------0---0--------8----8---------13--13-------|
A|--11----11-----10----10-----11------11-----11-----11----|
F|--10-------10--10-------10--10---------10--10--------10-|
C|--8------------0------------8---------------0-----------|
G|--8------------0------------8---------------------------|
C|--8------------0------------8---------------------------|

that's how Travis plays it in the vid but apart from that insignificant error the tab is 5*

guest
You may want to rate the tab now too:
select rating
Wanna post a correction for this tab? Suggest correction