Oops, an error
Loading. Please wait.

Bleeding Is A Luxury tab

version 3
version 3

Whole song

Interactive

by Atreyu
6,338 views 1 this week
2 commentsread comments
1 2 3 4 5
x 4
add to favorites
×
Save as Personal and add changes to this tab that will be seen only by you. Learn more ›
×
You can save this tab as Personal to edit and correct it or add notes. All changes will be seen only by you. Learn more »
launch autoscroll
font size
0
reset
how to read this tab
guitar tuner
edit
Autoscroll
slow
fast
+/-
esc
set tempo
stop
Tabbed by: Jack Flann (jako218)

Tuning: Drop C (CGCFAD)

/    - slide up
\    - slide down
h    - hammer on
p    - pull off
w    - use wah pedal on indicated note
x    - muted note
PM   - palm mute notes indicated by a *
~~   - hold note
0.   - mute the note straight after playing it
(X2) - play indicated section of song twice

This is my first tab, so here goes!

Intro Part 1
Guitar I
D|----------------------------|
A|----------------------------|
F|----------------------------|
C|----10/12-0-12/15-0-12-0----|
G|----------------------------|
C|----------------------------| X4

Intro Part 2 (X2)
Guitar I
D|----------------------------------------|
A|----13/15--15/18-15--13/15--15/18-15----|
F|----------------------------------------|
C|----------------------------------------|
G|----------------------------------------|
C|----------------------------------------|

D|----------------------------------------|
A|----10/13--13/15-10--10/13--13/15-10----|
F|----------------------------------------|
C|----------------------------------------|
G|----------------------------------------|
C|----------------------------------------|
                                                                
D|----------------------------------------|
A|----13/15--15/18-15--13/15--15/18-15----|
F|----------------------------------------|
C|----------------------------------------|
G|----------------------------------------|
C|----------------------------------------|

D|----------------------------------------|
A|----13/15--15/17-15--13/15--15/17-15----|
F|----------------------------------------|
C|----------------------------------------|
G|----------------------------------------|
C|----------------------------------------|


Guitar II
D|----------------------------------------|
A|----------------------------------------|
F|-----7-7-7-7-7-7-7-7-7-7-7-7-7-7-7-7----|
C|-----7-7-7-7-7-7-7-7-7-7-7-7-7-7-7-7----|
G|-----5-5-5-5-5-5-5-5-5-5-5-5-5-5-5-5----|
C|----------------------------------------|

D|----------------------------------------|
A|----------------------------------------|
F|----------------------------------------|
C|-----7-7-7-7-7-7-7-7-7-7-7-7-7-7-7-7----|
G|-----7-7-7-7-7-7-7-7-7-7-7-7-7-7-7-7----|
C|-----7-7-7-7-7-7-7-7-7-7-7-7-7-7-7-7----|
                                                                        
D|----------------------------------------|
A|----------------------------------------|
F|----------------------------------------|
C|-----8-8-8-8-8-8-8-8-8-8-8-8-8-8-8-8----|
G|-----8-8-8-8-8-8-8-8-8-8-8-8-8-8-8-8----|
C|-----8-8-8-8-8-8-8-8-8-8-8-8-8-8-8-8----|

D|----------------------------------------|
A|----------------------------------------|
F|----------------------------------------|
C|-----5-5-5-5-5-5-5-5-5-5-5-5-5-5-5-5----|
G|-----5-5-5-5-5-5-5-5-5-5-5-5-5-5-5-5----|
C|-----5-5-5-5-5-5-5-5-5-5-5-5-5-5-5-5----|


Into Verse
Guitar I
D|------------------------|
A|------------------------|
F|----7-x-x-9-x-x-10-x----|
C|----x-x-x-x-x-x-x--x----|
G|----5-x-x-7-x-x-8--x----|
C|------------------------| X3


On 2nd time into 3rd time (notes positioned according to time played)
Guitar II
D|----------------------------|
A|----------------------------|
F|---------------------5-7----|
C|----------------7----5-7----|
G|----------------7----3-5----|
C|----------------7-----------|

Guitars I & II
D|-----------------------|
A|-----------------------|
F|-----------------------|
C|-----------------------|
G|----8\7\5/7/8\7\5\3----|
C|-----------------------|


Verse 1 (X2)
Guitars I & II
D|------------------------|
A|------------------------|
F|----7-x-x-9-x-x-10-x----|
C|----x-x-x-x-x-x-x--x----|
G|----5-x-x-7-x-x-8--x----|
C|------------------------| X3

D|-----------------------|
A|-----------------------|
F|-----------------------|
C|-----------------------|
G|----8\7\5/7/8\7\5\3----|
C|-----------------------|

Guitar I
D|--------------------------------------------------------------------|
A|--------------------------------------------------------------------|
F|--------------------------------------------------------------------|
C|---5-5---5---5-5-5-3-3---3---3-3-3-8-8---8---8-8-8-7-7-7-7-7-7-7-7--|
G|---5-5---5---5-5-5-3-3---3---3-3-3-8-8---8---8-8-8-7-7-7-7-7-7-7-7--|
C|---5-5---5---5-5-5-3-3---3---3-3-3-8-8---8---8-8-8-7-7-7-7-7-7-7-7--|
                                                    PM|*-*-*|
Guitar II
D|------------------------|
A|------------------------|
F|----7-x-x-9-x-x-10-x----|
C|----x-x-x-x-x-x-x--x----|
G|----5-x-x-7-x-x-8--x----|
C|------------------------| X3

D|---------------------|
A|---------------------|
F|---------------------|
C|----7-7-7-7-7-7-7-7--|  (same as Guitar I end bit)
G|----7-7-7-7-7-7-7-7--|
C|----7-7-7-7-7-7-7-7--|
     PM|*-*-*|


Chorus 1 (X2)
Guitar I
D|----------------------------------------|
A|----13/15--15/18-15--13/15--15/18-15----|
F|----------------------------------------|
C|----------------------------------------|
G|----------------------------------------|
C|----------------------------------------|

D|----------------------------------------|
A|----10/13--13/15-10--10/13--13/15-10----|
F|----------------------------------------|
C|----------------------------------------|
G|----------------------------------------|
C|----------------------------------------|
                                                                        
D|----------------------------------------|
A|----13/15--15/18-15--13/15--15/18-15----|
F|----------------------------------------|
C|----------------------------------------|
G|----------------------------------------|
C|----------------------------------------|

D|----------------------------------------|
A|----13/15--15/17-15--13/15--15/17-15----|
F|----------------------------------------|
C|----------------------------------------|
G|----------------------------------------|
C|----------------------------------------|


Guitar II
D|----------------------------------------|
A|----------------------------------------|
F|-----7-7-7-7-7-7-7-7-7-7-7-7-7-7-7-7----|
C|-----7-7-7-7-7-7-7-7-7-7-7-7-7-7-7-7----|
G|-----5-5-5-5-5-5-5-5-5-5-5-5-5-5-5-5----|
C|----------------------------------------|

D|----------------------------------------|
A|----------------------------------------|
F|----------------------------------------|
C|-----7-7-7-7-7-7-7-7-7-7-7-7-7-7-7-7----|
G|-----7-7-7-7-7-7-7-7-7-7-7-7-7-7-7-7----|
C|-----7-7-7-7-7-7-7-7-7-7-7-7-7-7-7-7----|
                                                                        
D|----------------------------------------|
A|----------------------------------------|
F|----------------------------------------|
C|-----8-8-8-8-8-8-8-8-8-8-8-8-8-8-8-8----|
G|-----8-8-8-8-8-8-8-8-8-8-8-8-8-8-8-8----|
C|-----8-8-8-8-8-8-8-8-8-8-8-8-8-8-8-8----|

D|----------------------------------------|
A|----------------------------------------|
F|----------------------------------------|
C|-----5-5-5-5-5-5-5-5-5-5-5-5-5-5-5-5----|
G|-----5-5-5-5-5-5-5-5-5-5-5-5-5-5-5-5----|
C|-----5-5-5-5-5-5-5-5-5-5-5-5-5-5-5-5----|


Break
Guitars I & II
D|------------------------------------------|
A|------------------------------------------|
F|------------------------------------------|
C|----0.-0.-3-2-0-3-2-0-0.-0.-3-2-0-0///----|
G|----0.-0.-3-2-0-3-2-0-0.-0.-3-2-0-0///----|
C|----0.-0.-3-2-0-3-2-0-0.-0.-3-2-0-0///----|
         PM|*-*-*-*-*-*|   PM|*-*-*|


Verse 2 (X2)
Guitars I & II
D|------------------------|
A|------------------------|
F|----7-x-x-9-x-x-10-x----|
C|----x-x-x-x-x-x-x--x----|
G|----5-x-x-7-x-x-8--x----|
C|------------------------| X3

D|-----------------------|
A|-----------------------|
F|-----------------------|
C|-----------------------|
G|----8\7\5/7/8\7\5\3----|
C|-----------------------|

Guitar I
D|--------------------------------------------------------------------|
A|--------------------------------------------------------------------|
F|--------------------------------------------------------------------|
C|---5-5---5---5-5-5-3-3---3---3-3-3-8-8---8---8-8-8-7-7-7-7-7-7-7-7--|
G|---5-5---5---5-5-5-3-3---3---3-3-3-8-8---8---8-8-8-7-7-7-7-7-7-7-7--|
C|---5-5---5---5-5-5-3-3---3---3-3-3-8-8---8---8-8-8-7-7-7-7-7-7-7-7--|
                                                    PM|*-*-*|


Guitar II
D|------------------------|
A|------------------------|
F|----7-x-x-9-x-x-10-x----|
C|----x-x-x-x-x-x-x--x----|
G|----5-x-x-7-x-x-8--x----|
C|------------------------| X3

D|---------------------|
A|---------------------|
F|---------------------|
C|----7-7-7-7-7-7-7-7--|  (same as Guitar I end bit)
G|----7-7-7-7-7-7-7-7--|
C|----7-7-7-7-7-7-7-7--|
     PM|*-*-*|

Into the 2nd Chorus, Guitar II leaves 2 beats after the above, then plays;
D|-------------|
A|-------------|
F|-------------|
C|----7-7-7-7--| 
G|----7-7-7-7--|
C|----7-7-7-7--|
Then goes into the chorus straight after as normal.


Chorus 2 (X2)
Guitar I
D|----------------------------------------|
A|----13/15--15/18-15--13/15--15/18-15----|
F|----------------------------------------|
C|----------------------------------------|
G|----------------------------------------|
C|----------------------------------------|

D|----------------------------------------|
A|----10/13--13/15-10--10/13--13/15-10----|
F|----------------------------------------|
C|----------------------------------------|
G|----------------------------------------|
C|----------------------------------------|
                                                                        
D|----------------------------------------|
A|----13/15--15/18-15--13/15--15/18-15----|
F|----------------------------------------|
C|----------------------------------------|
G|----------------------------------------|
C|----------------------------------------|

D|----------------------------------------|
A|----13/15--15/17-15--13/15--15/17-15----|
F|----------------------------------------|
C|----------------------------------------|
G|----------------------------------------|
C|----------------------------------------|


Guitar II
D|----------------------------------------|
A|----------------------------------------|
F|-----7-7-7-7-7-7-7-7-7-7-7-7-7-7-7-7----|
C|-----7-7-7-7-7-7-7-7-7-7-7-7-7-7-7-7----|
G|-----5-5-5-5-5-5-5-5-5-5-5-5-5-5-5-5----|

C|----------------------------------------|
D|----------------------------------------|
A|----------------------------------------|
F|----------------------------------------|
C|-----7-7-7-7-7-7-7-7-7-7-7-7-7-7-7-7----|
G|-----7-7-7-7-7-7-7-7-7-7-7-7-7-7-7-7----|
C|-----7-7-7-7-7-7-7-7-7-7-7-7-7-7-7-7----|
                                                                        
D|----------------------------------------|
A|----------------------------------------|
F|----------------------------------------|
C|-----8-8-8-8-8-8-8-8-8-8-8-8-8-8-8-8----|
G|-----8-8-8-8-8-8-8-8-8-8-8-8-8-8-8-8----|
C|-----8-8-8-8-8-8-8-8-8-8-8-8-8-8-8-8----|

D|----------------------------------------|
A|----------------------------------------|
F|----------------------------------------|
C|-----5-5-5-5-5-5-5-5-5-5-5-5-5-5-5-5----|
G|-----5-5-5-5-5-5-5-5-5-5-5-5-5-5-5-5----|
C|-----5-5-5-5-5-5-5-5-5-5-5-5-5-5-5-5----|



Breakdown
Guitar I
D|---------------------------------------------|
A|---------------------------------------------|
F|----15---14-14--12-12---15---14-14--12-12----|
C|----x----x--x---x--x----x----x--x---x--x-----|
G|----13---12-12--10-10---13---12-12--10-10----|
C|---------------------------------------------|

D|---------------------------------------------|
A|---------------------------------------------|
F|----14---12-12--10-10---14---12-12--10-10----|
C|----x----x--x---x--x----x----x--x---x--x-----|
G|----12---10-10--8--8----12---10-10--8--8-----|
C|---------------------------------------------|

D|-------------------------------------|
A|-------------------------------------|
F|----14---12---10----14---12---10-----|
C|----x----x----x-----x----x----x------|
G|----12---10---8-----12---10---8------|
C|-------------------------------------|

D|-----------------------------------|
A|-----------------------------------|
F|----9----10----9--9----10---9------|
C|----x----x-----x--x----x----x------|
G|----7----8-----7--7----8----7------|
C|-----------------------------------|

Guitar II
D|----------------------------------------|
A|----------------------------------------|
F|----------------------------------------|
C|-----5-5-5-5-5-5-5-5-5-5-5-5-5-5-5-5----|
G|-----5-5-5-5-5-5-5-5-5-5-5-5-5-5-5-5----|
C|-----5-5-5-5-5-5-5-5-5-5-5-5-5-5-5-5----|

D|----------------------------------------|
A|----------------------------------------|
F|----------------------------------------|
C|-----8-8-8-8-8-8-8-8-8-8-8-8-8-8-8-8----|
G|-----8-8-8-8-8-8-8-8-8-8-8-8-8-8-8-8----|
C|-----8-8-8-8-8-8-8-8-8-8-8-8-8-8-8-8----|

D|----------------------------------------|
A|----------------------------------------|
F|----------------------------------------|
C|-----3-3-3-3-3-3-3-3-3-3-3-3-3-3-3-3----|
G|-----3-3-3-3-3-3-3-3-3-3-3-3-3-3-3-3----|
C|-----3-3-3-3-3-3-3-3-3-3-3-3-3-3-3-3----|

D|--------------------------------------------------------|
A|--------------------------------------------------------|
F|--------------------------------------------------------|
C|-----10-10-10-10-10-10-10-10-10-10-10-10-10-10-10-10----|
G|-----10-10-10-10-10-10-10-10-10-10-10-10-10-10-10-10----|
C|-----10-10-10-10-10-10-10-10-10-10-10-10-10-10-10-10----|


Solo
Guitar I
D|----------------------------------------|
A|----------------------------------------|
F|----/15-14-14-12-12-/15-14-14-12-12-----|
C|----------------------------------------|
G|----------------------------------------|
C|----------------------------------------|

D|----------------------------------------|
A|----------------------------------------|
F|----/14-12-12-10-10-/14-12-12-10-10-----|
C|----------------------------------------|
G|----------------------------------------|
C|----------------------------------------|

D|----------------------------------------|
A|----------------------------------------|
F|----/14141414141412121212121210101010---| (14s, 12s, 10s)
C|----------------------------------------|
G|----------------------------------------|
C|----------------------------------------|

D|----------------------------------------|
A|----------------------------------------|
F|----/14141414141412121212121210101010---|
C|----------------------------------------|
G|----------------------------------------|
C|----------------------------------------|

D|---------------------------------------------|
A|---------------------------------------------|
F|----9h10h12p10h12h14p12h14h15p14h15h17-19w---|
C|---------------------------------------------|
G|---------------------------------------------|
C|---------------------------------------------|


Guitar II
D|----------------------------------------|
A|----------------------------------------|
F|----------------------------------------|
C|-----5-5-5-5-5-5-5-5-5-5-5-5-5-5-5-5----|
G|-----5-5-5-5-5-5-5-5-5-5-5-5-5-5-5-5----|
C|-----5-5-5-5-5-5-5-5-5-5-5-5-5-5-5-5----|


D|----------------------------------------|
A|----------------------------------------|
F|----------------------------------------|
C|-----8-8-8-8-8-8-8-8-8-8-8-8-8-8-8-8----|
G|-----8-8-8-8-8-8-8-8-8-8-8-8-8-8-8-8----|
C|-----8-8-8-8-8-8-8-8-8-8-8-8-8-8-8-8----|

D|----------------------------------------|
A|----------------------------------------|
F|----------------------------------------|
C|-----3-3-3-3-3-3-3-3-3-3-3-3-3-3-3-3----|
G|-----3-3-3-3-3-3-3-3-3-3-3-3-3-3-3-3----|
C|-----3-3-3-3-3-3-3-3-3-3-3-3-3-3-3-3----|

D|--------------------------------------------------------|
A|--------------------------------------------------------|
F|--------------------------------------------------------|
C|-----10-10-10-10-10-10-10-10-10-10-10-10-10-10-10-10----|
G|-----10-10-10-10-10-10-10-10-10-10-10-10-10-10-10-10----|
C|-----10-10-10-10-10-10-10-10-10-10-10-10-10-10-10-10----|


Breakdown
Guitars I & II
D|------------------|
A|------------------|
F|------------------|
C|----0.-0.-0///----|
G|----0.-0.-0///----|
C|----0.-0.-0///----|

D|-----------------------------------|
A|-----------------------------------|
F|-----------------------------------|
C|----0-0-0-0---0-0-0-0--0--00000----|
G|----0-0-0-0---0-0-0-0--0--00000----|
C|----0-0-0-0---0-0-0-0--0--00000----|
   PM|*-*-*| PM|*-*-*|

D|-------------------|------------------------|
A|-------------------|------------------------|
F|-------------------|-7-9-10-11-12-11-10-9---| (Guitar I)
C|---0-0-0-0---0-0-0-|------------------------|
G|---0-0-0-0---0-0-0-|------------------------|
C----0-0-0-0---0-0-0-|-0-2-3--4--5--4--3--2---| (Guitar II)
  PM|*-*-*| PM|*-*-*|

D|-----------------------------------|
A|-----------------------------------|
F|-----------------------------------|
C|----0-0-0-0---0-0-0-0--0--00000----|
G|----0-0-0-0---0-0-0-0--0--00000----|
C|----0-0-0-0---0-0-0-0--0--00000----|
   PM|*-*-*| PM|*-*-*|

D|-------------------|------------------------|
A|-------------------|------------------------|
F|-------------------|-7-9-10-11-12-11-10-9---| (Guitar I)
C|---0-0-0-0---0-0-0-|------------------------|
G|---0-0-0-0---0-0-0-|------------------------|
C----0-0-0-0---0-0-0-|-0-2-3--4--5--4--3--2---| (Guitar II)
  PM|*-*-*| PM|*-*-*|

D|-----------------------------------|
A|-----------------------------------|
F|-----------------------------------|
C|----3-3-3-3---3-3-3-3--3--33333----| (3s)
G|----3-3-3-3---3-3-3-3--3--33333----|
C|----3-3-3-3---3-3-3-3--3--33333----|
   PM|*-*-*| PM|*-*-*|

D|-------------------|------------------------|
A|-------------------|------------------------|
F|-------------------|--15~\\8~~--------------| (Guitar I)
C|---3-3-3-3---3-3-3-|--8~~\\1~~--------------| (Guitar II)
G|---3-3-3-3---3-3-3-|--8~~\\1~~--------------| (Guitar II)
C----3-3-3-3---3-3-3-|--8~~\\1~~--------------| (Guitar II)
  PM|*-*-*| PM|*-*-*|
D|-----------------------------------|
A|-----------------------------------|
F|-----------------------------------|
C|----0-0-0-0---0-0-0-0--0--00000----|
G|----0-0-0-0---0-0-0-0--0--00000----|
C|----0-0-0-0---0-0-0-0--0--00000----|
   PM|*-*-*| PM|*-*-*|

D|-------------------|-------------|
A|-------------------|-------------|
F|-------------------|-------------|
C|---0-0-0-0---0-0-0-|--8~~\\1~~---| (Both Guitars)
G|---0-0-0-0---0-0-0-|--8~~\\1~~---|
C----0-0-0-0---0-0-0-|--8~~\\1~~---|
  PM|*-*-*| PM|*-*-*|

Into Chorus
Guitar I
D|----------------------------|
A|----------------------------|
F|----------------------------|
C|----10/12-0-12/15-0-12-0----|
G|----------------------------|
C|----------------------------| X2

Chorus 3 (X2)
Guitar I
D|----------------------------------------|
A|----13/15--15/18-15--13/15--15/18-15----|
F|----------------------------------------|
C|----------------------------------------|
G|----------------------------------------|
C|----------------------------------------|

D|----------------------------------------|
A|----10/13--13/15-10--10/13--13/15-10----|
F|----------------------------------------|
C|----------------------------------------|
G|----------------------------------------|
C|----------------------------------------|
                                                                                
D|----------------------------------------|
A|----13/15--15/18-15--13/15--15/18-15----|
F|----------------------------------------|
C|----------------------------------------|
G|----------------------------------------|
C|----------------------------------------|

D|----------------------------------------|
A|----13/15--15/17-15--13/15--15/17-15----|
F|----------------------------------------|
C|----------------------------------------|
G|----------------------------------------|
C|----------------------------------------|


Guitar II
D|----------------------------------------|
A|----------------------------------------|
F|-----7-7-7-7-7-7-7-7-7-7-7-7-7-7-7-7----|
C|-----7-7-7-7-7-7-7-7-7-7-7-7-7-7-7-7----|
G|-----5-5-5-5-5-5-5-5-5-5-5-5-5-5-5-5----|
C|----------------------------------------|

D|----------------------------------------|
A|----------------------------------------|
F|----------------------------------------|
C|-----7-7-7-7-7-7-7-7-7-7-7-7-7-7-7-7----|
G|-----7-7-7-7-7-7-7-7-7-7-7-7-7-7-7-7----|
C|-----7-7-7-7-7-7-7-7-7-7-7-7-7-7-7-7----|
                                                                        
D|----------------------------------------|
A|----------------------------------------|
F|----------------------------------------|
C|-----8-8-8-8-8-8-8-8-8-8-8-8-8-8-8-8----|
G|-----8-8-8-8-8-8-8-8-8-8-8-8-8-8-8-8----|
C|-----8-8-8-8-8-8-8-8-8-8-8-8-8-8-8-8----|

D|----------------------------------------|
A|----------------------------------------|
F|----------------------------------------|
C|-----5-5-5-5-5-5-5-5-5-5-5-5-5-5-5-5----|
G|-----5-5-5-5-5-5-5-5-5-5-5-5-5-5-5-5----|
C|-----5-5-5-5-5-5-5-5-5-5-5-5-5-5-5-5----|


Outro
Guitars I & II
D|----------------------------------------|
A|----------------------------------------|
F|-----7-7-7-7-7-7-7-7-7-7-7-7-7-7-7-7----|
C|-----7-7-7-7-7-7-7-7-7-7-7-7-7-7-7-7----|
G|-----5-5-5-5-5-5-5-5-5-5-5-5-5-5-5-5----|
C|----------------------------------------|

D|----------------------------------------|
A|----------------------------------------|
F|----------------------------------------|
C|-----7-7-7-7-7-7-7-7-7-7-7-7-7-7-7-7----|
G|-----7-7-7-7-7-7-7-7-7-7-7-7-7-7-7-7----|
C|-----7-7-7-7-7-7-7-7-7-7-7-7-7-7-7-7----|
                                                                                
D|----------------------------------------|
A|----------------------------------------|
F|----------------------------------------|
C|-----8-8-8-8-8-8-8-8-8-8-8-8-8-8-8-8----|
G|-----8-8-8-8-8-8-8-8-8-8-8-8-8-8-8-8----|
C|-----8-8-8-8-8-8-8-8-8-8-8-8-8-8-8-8----|

D|----------------------------------------|
A|----------------------------------------|
F|----------------------------------------|
C|-----5-5-5-5-5-5-5-5-5-5-5-5-5-5-5-5----|
G|-----5-5-5-5-5-5-5-5-5-5-5-5-5-5-5-5----|
C|-----5-5-5-5-5-5-5-5-5-5-5-5-5-5-5-5----|


Ending
Guitars I & II
D|-----------------------------------|
A|-----------------------------------|
F|-----------------------------------|
C|----0-0-0-0---0-0-0-0--0--00000----|
G|----0-0-0-0---0-0-0-0--0--00000----|
C|----0-0-0-0---0-0-0-0--0--00000----|
   PM|*-*-*| PM|*-*-*|

D|-------------------|--------------------|
A|-------------------|--------------------|
F|-------------------|--------------------|
C|---0-0-0-0---0-0-0-|--8~~\\1~~---0~~~---| 
G|---0-0-0-0---0-0-0-|--8~~\\1~~---0~~~---|
C----0-0-0-0---0-0-0-|--8~~\\1~~---0~~~---|
  PM|*-*-*| PM|*-*-*|

            
            
Suggest correction
Creating personal tab
Creating personal tab
You can edit any tab online and save it as your Personal.

You can edit, replace or remove any tab part or add personal notes – all changes will be seen only by you.

Personal tabs can be accessed anytime from any device, even offline.
Learn more »
comments
print report bad tab
2 comments total.
0 reply
Kronus 943 Aug 16, 2010 03:11 AM

Only 4*, because there are some mistakes...for example:

everytime you wrote down to play

it's played

and in the verse in the last bar you don't play 7, you have to play 10and it's not palm muted like this way it's more difficult, you have to listen much better...

0 reply
Kronus 943 Aug 16, 2010 03:14 AM

Sorry:

everytime you wrote down to play on a-string tuned down to g

-----7-----
-----7-----
-----5-----

it's played one string down on the e-string tuned down to c

-----0-----
-----0-----
-----0-----

guest
You may want to rate the tab now too:
select rating
Wanna post a correction for this tab? Suggest correction