Oops, an error
Loading. Please wait.

Falling Down tab

version 1
version 1

Whole song

Interactive

Video

by Atreyu
38,907 views 3 this week
3 commentsread comments
1 2 3 4 5
x 5
add to favorites
×
Save as Personal and add changes to this tab that will be seen only by you. Learn more ›
×
You can save this tab as Personal to edit and correct it or add notes. All changes will be seen only by you. Learn more »
launch autoscroll
font size
0
reset
how to read this tab
guitar tuner
edit
Autoscroll
slow
fast
+/-
esc
set tempo
stop
-------------------------------------------------------------------------------
                             Falling Down - Atreyu
-------------------------------------------------------------------------------
Tabbed by: Randomkiller

Tuning: Drop c(C G C F A D)

These are just the riffs, not when or how many times to play them. sorry, but i didnt 
that much time. ill try to get those parts later.

9/9/07 - added first pre solo thingy

Intro

e|----------------------|
B|----------------------|
G|----------------------|
D|-x--x-x-x--x-x-x--x-x-|
A|-x--x-x-x--x-x-x--x-x-|
E|-x--x-x-x--x-x-x--x-x-|

Verse

e|----------------------------|
B|----------------------------|
G|----------------------------|
D|----------------------------|
A|----------------------------|
E|-7--7-5-7--7-5-7--7-5-7-10--|
P.M. - - - - - - - - - - |

e|----------------------------|
B|----------------------------|
G|----------------------------|
D|----------------------------|
A|-7--7-5-7--7-5-7--7-5-7-10--|
E|-7--7-5-7--7-5-7--7-5-7-10--|
P.M. - - - - - - - - - - |

CHORUS

e|-------------------------------------------------------|
B|-------------------------------------------------------|
G|-10-10---10-10---------------------------10-10---10-10-|
D|-10-10---10-10--10-10---10-10--7-7---7-7-10-10---10-10-|
A|-8--8----8--8---10-10---10-10--7-7---7-7-8--8----8--8--|
E|----------------10-10---10-10--7-7---7-7---------------|

e|------------------------------------------|
B|------------------------------------------|
G|------------------------------------------|
D|-7-7---7-9-10-10----10-10-3-3-3-3-3-3-3-3-|
A|-7-7---7-9-10-10----10-10-3-3-3-3-3-3-3-3-|
E|-7-7---7-9-10-10----10-10-3-3-3-3-3-3-3-3-|

back to verse

Breakdown

e|--------------------------|
B|--------------------------|
G|--------------------------|
D|-7-7------7-7---------10--|
A|-7-7------7-7--8h9h10-----|
E|-7-7------7-7-------------|

PRE-SOLO RIFF 

e|-12b-----------------12vb-----15*p12-|
B|-15b-----------------------15b-------|
G|-------------------------------------|
D|-------------------------------------|
A|-------------------------------------|
E|-------------------------------------|
   1/4                          

im still working on the solo, but when i get it, ill definitely have it up. i have about 
of it now.

go back to the chorus, then the breakdown.

and thats the song. sorry if its not clear enough, or u cant understand them... its just 
riffs, im not that sure on where they are in the song.
and there are some side riffs.
most of them are D#5 just played fast.

| /  slide up
| \  slide down
| h  hammer-on
| p  pull-off
| v  vibrato
| +  harmonic
| x  Mute note
===============================================================================

            
            
Suggest correction
Creating personal tab
Creating personal tab
You can edit any tab online and save it as your Personal.

You can edit, replace or remove any tab part or add personal notes – all changes will be seen only by you.

Personal tabs can be accessed anytime from any device, even offline.
Learn more »
comments
print report bad tab
3 comments total.
0 reply
Crutchy 10 Sep 07, 2007 05:27 PM

Awesome tab! Can't wait for the solo!

0 reply
xXmasqueradeXx 30 Nov 08, 2007 12:04 PM

the chorus doesnt sound right

0 reply
lo-ball 30 Jul 18, 2008 03:48 PM

the chorus isnt right

|---------------------------------------------
|---------------------------------------------
|--55-555-0---------22-222--------------------
|--33-333-0-55-555--22-222--------------------
|-----------33-333--00-000--0-33-33-333-333---
|---------------------------0-33-33-333-333---

|-------------------------------------
|-------------------------------------
|--22-222-----------------------------
|--22-222---55-555--------------------
|--00-000-0-33-333--00-0000-00-000----
|---------0---------00-0000-00-000----

guest
You may want to rate the tab now too:
select rating
Wanna post a correction for this tab? Suggest correction