Oops, an error
Loading. Please wait.

Falling Down tab

version 3
version 3

Whole song

Interactive

Video

by Atreyu
7,769 views 3 this week
3 commentsread comments
1 2 3 4 5
1 last vote to show rating
add to favorites
×
Save as Personal and add changes to this tab that will be seen only by you. Learn more ›
×
You can save this tab as Personal to edit and correct it or add notes. All changes will be seen only by you. Learn more »
launch autoscroll
font size
0
reset
how to read this tab
guitar tuner
edit
Autoscroll
slow
fast
+/-
esc
set tempo
stop
Author
Difficulty
The song is truned in drop c-cgcfad bottom to top
for the most part, i think its right exept for a part in the solo
so yeah, and on with the tab

INTRO
|-----------------|
|-----------------|
|-----------------|
|-----------------| do this 3 times
|-0-000-000-000-3-|
|-----------------|
Pm* *** *** ***
|------------------|
|------------------|
|------------------|
|------------------|
|-------------5----|
|-6-6-6-6-3-56-630-|
pm* * * *

VERSE
|------------------|
|------------------|
|------------------|
|-2-222-222-222-5--| do this 3 times
|-0-000-000-000-3--|
|------------------|
Pm* *** *** ***        repeat one more time
|------------------|
|------------------|
|------------------|
|------------------|
|-6-6-6-6-----5----|
|-6-6-6-6-3-56-630-|
pm* * * *

CHORUS
|---------------------------------------------------------|
|---------------------------------------------------------|
|---------------------------------------------------------|
|-101010105-5-5-5-2-2-2-2---------2-2-2-2-5-5-5-5-7-7-7-7-|
|-8-8-8-8-3-3-3-3-0-0-0-0-3-3-3-3-0-0-0-0-3-3-3-3-5-5-5-5-|
|-------------------------3-3-3-3-----------------0-0-0-0-|

REPEAT VERSE

|------------------|
|------------------|
|------------------|
|-2-222-222-222-5--| do this 3 times
|-0-000-000-000-3--|
|------------------|
Pm* *** *** ***        repeat one more time
|------------------|
|------------------|
|------------------|
|------------------|
|-6-6-6-6-----5----|
|-6-6-6-6-3-56-630-|
pm* * * *

|-----------------|
|-----------------|
|-----------------|
|-----------------| do this 3 times
|-0-000-000-000-3-|
|-----------------|
Pm* *** *** ***
|------------------|
|------------------|
|------------------|
|------------------|
|-------------5----|
|-6-6-6-6-3-56-630-|
pm* * * *

CHORUS
|---------------------------------------------------------|
|---------------------------------------------------------|
|---------------------------------------------------------|
|-101010105-5-5-5-2-2-2-2---------2-2-2-2-5-5-5-5-7-7-7-7-|
|-8-8-8-8-3-3-3-3-0-0-0-0-3-3-3-3-0-0-0-0-3-3-3-3-5-5-5-5-|
|-------------------------3-3-3-3-----------------0-0-0-0-|

BRIDGE? Whatever you want to call it

|------------------------------|
|------------------------------|
|----------------------------5-|
|-101010105-5-5-5-22---22-235—-|
|-8X8X8X8-3X3X3X3-00---00------|
|------------------------------|

|--------------------------------------12--|
|-------------------------------------b15--|
|-------------5----22------5----22---------|
|-22---22—-235—-22---22-235—-22----777-----|
|-00---00-------00---00------00----777-----|
|----------------------------------777-----|


SOLO part 1
|--------------------20-19-17-15-17-15-17-----|
|--15-18-15----20-18---------------------15---|
|-b17-------17-----------------------------17-|
|---------------------------------------------|
|---------------------------------------------|
|---------------------------------------------|

|-12-15-12----12------------------------------|
|----------15----15-13------------------------|
|-----------------------14-11-12-11-14--------|
|--------------------------------------14-12~-|
|---------------------------------------------|
|---------------------------------------------|

|-15-13-12-17-15-13-19-17-15-20-19-17-20-29-17-17-|
|---------------------------------------------b20-|
|-------------------------------------------------|
|-------------------------------------------------|
|-------------------------------------------------|
|-------------------------------------------------|

SOLO part 2
  dives
|----------|-HOLD-THE-WHAMMY-BAR-DOWN-------------------------|
|-17\--11\-|--------------------------------------------------|
|b19 \b13 \|-1617161916171619---------------------------------|
|----------|------------------1617161916171619-1617191716-----|
|----------|----------------------------------------------19~-|
|----------|--------------------------------------------------|

I don’t know this part, but I tried my best
|--------------------------------------17-|
|--------------------------15-17-19-20b20-|
|-------141617------161719----------------|
|-141617------161719----------------------|
|-----------------------------------------|
|-----------------------------------------|

CHORUS
|---------------------------------------------------------|
|---------------------------------------------------------|
|---------------------------------------------------------|
|-101010105-5-5-5-2-2-2-2---------2-2-2-2-5-5-5-5-7-7-7-7-|
|-8-8-8-8-3-3-3-3-0-0-0-0-3-3-3-3-0-0-0-0-3-3-3-3-5-5-5-5-|
|-------------------------3-3-3-3-----------------0-0-0-0-|

OUTRO
|------------------------------|
|------------------------------|
|----------------------------5-|
|-101010105-5-5-5-22---22-235—-|
|-8X8X8X8-3X3X3X3-00---00------|
|------------------------------|

Ends on
|-----
|-----
|-----
|-2-2--
|-0-0-
|-----
Well I think that’s everything, but istill cant figure out that one part in the solo, 
I think its close enough
Enjoy!

            
            
Suggest correction
Creating personal tab
Creating personal tab
You can edit any tab online and save it as your Personal.

You can edit, replace or remove any tab part or add personal notes – all changes will be seen only by you.

Personal tabs can be accessed anytime from any device, even offline.
Learn more »
Give kudos to tab author, rate the tab!
1 2 3 4 5
comments
print report bad tab
3 comments total.
0 reply
Spay 157 Jan 29, 2008 07:43 AM

The part you can't figure out sounds like it's probably a tapping part of the solo, since Dan Jacobs and Miguel are known to do that from time to time.

Also, the main riff can just as easily be played on the big E string. I find that it has a fuller sound then playing it on the A string.

Otherwise, pretty good

-1 reply
numa dance 10 Apr 23, 2008 05:21 PM

you sure about the TWENTY NINTH fret in the solo?

0 reply
guitarpro15 71 Jul 09, 2008 10:59 AM

the main riff is not:
D-----------------
A-----------------
F-----------------
C-----------------
G-0-000-000-000-3-
C-----------------

its:
D----------------------------
A----------------------------
F----------------------------
C----------------------------
G----------------------------
C--7-7-5h7-7-5h7-7-5h7-10----

guest
You may want to rate the tab now too:
select rating
Wanna post a correction for this tab? Suggest correction