Oops, an error
Loading. Please wait.

Falling Down tab

version 4
version 4

Whole song

Interactive

Video

by Atreyu
52,102 views 9 this week
9 commentsread comments
1 2 3 4 5
x 26
add to favorites
×
Save as Personal and add changes to this tab that will be seen only by you. Learn more ›
×
You can save this tab as Personal to edit and correct it or add notes. All changes will be seen only by you. Learn more »
launch autoscroll
font size
0
reset
how to read this tab
guitar tuner
edit
Autoscroll
slow
fast
+/-
esc
set tempo
stop
-------------------------------------------------------------------------------
                             Falling Down - Atreyu
-------------------------------------------------------------------------------
Tabbed by: vengefuleyes
Email: vengefuleyes89129@yahoo.com

Tuning: Drop C

So here's the tab, pretty similar to the others just a few things different. This my 
tab so if it sucks ( I think it's jsut about perfect ) don't bash me too hard.


Verse 1:

D|------------------------------------|
A|------------------------------------|
F|------------------------------------|
C|------------------------------------|
G|------------------------------------|
C|-7---7-5-7---7-5-7---7-5-7---10-----| x2
PM..........................

D|------------------------------------|
A|------------------------------------|
F|------------------------------------|
C|------------------------------------|
G|-7---7-5-7---7-5-7---7-5-7---10-----|
C|-7---7-5-7---7-5-7---7-5-7---10-----| x3
PM..........................

D|------------------------------|
A|------------------------------|
F|------------------------------|
C|------------------------------|
G|-6--6--6--6-------0-5-3-------|
C|-6--6--6--6---0-3-------6-----|
PM...........

D|------------------------------------|
A|------------------------------------|
F|------------------------------------|
C|------------------------------------|
G|-7---7-5-7---7-5-7---7-5-7---10-----|
C|-7---7-5-7---7-5-7---7-5-7---10-----| x3
PM..........................


Chorus:

D|----------------------------------------------------------|
A|----------------------------------------------------------|
F|-55555--55555--22222---------22222--55555-----------------|
C|-33333--55555--22222--33333--22222--55555--0000000000-----|
G|--------33333--00000--33333--00000--33333--0000000000-----|
C|----------------------33333----------------0000000000-----| x2


Verse 2:

D|------------------------------------|
A|------------------------------------|
F|------------------------------------|
C|------------------------------------|
G|------------------------------------|
C|-7---7-5-7---7-5-7---7-5-7---10-----| x2
PM..........................

D|------------------------------------|
A|------------------------------------|
F|------------------------------------|
C|------------------------------------|
G|-7---7-5-7---7-5-7---7-5-7---10-----|
C|-7---7-5-7---7-5-7---7-5-7---10-----| x3
PM..........................

D|------------------------------|
A|------------------------------|
F|------------------------------|
C|------------------------------|
G|-6--6--6--6-------0-5-3-------|
C|-6--6--6--6---0-3-------6-----|
PM...........

D|------------------------------------|
A|------------------------------------|
F|------------------------------------|
C|------------------------------------|
G|------------------------------------|
C|-7---7-5-7---7-5-7---7-5-7---10-----| x2
PM..........................

D|------------------------------------|
A|------------------------------------|
F|------------------------------------|
C|------------------------------------|
G|-7---7-5-7---7-5-7---7-5-7---10-----|
C|-7---7-5-7---7-5-7---7-5-7---10-----|
PM..........................


Chorus:

D|----------------------------------------------------------|
A|----------------------------------------------------------|
F|-55555--55555--22222---------22222--55555-----------------|
C|-33333--55555--22222--33333--22222--55555--0000000000-----|
G|--------33333--00000--33333--00000--33333--0000000000-----|
C|----------------------33333----------------0000000000-----| x2


Breakdown:

D|-----------------------|
A|-----------------------|
F|-----------------------|
C|-----------------------|
G|-77---77---------3-----|
C|-77---77---0-3-5-------| x3

D|--------------------|
A|------------15~-----|
F|------------17b~----|
C|--------------------|
G|-77---7-7-7---------|
C|-77---7-7-7---------|


Solo:

*Still working on this, I'll put it up when im done, use the other tabs till then.*


Chorus:

D|----------------------------------------------------------|
A|----------------------------------------------------------|
F|-55555--55555--22222---------22222--55555-----------------|
C|-33333--55555--22222--33333--22222--55555--0000000000-----|
G|--------33333--00000--33333--00000--33333--0000000000-----|
C|----------------------33333----------------0000000000-----| x2


Outro:

D|-----------------------|
A|-----------------------|
F|-----------------------|
C|-----------------------|
G|-77---77---------3-----|
C|-77---77---0-3-5-------| x2

D|--------|
A|--------|
F|--------|
C|--------|
G|-77-----|
C|-77-----|


===============================================================================

            
            
Suggest correction
Creating personal tab
Creating personal tab
You can edit any tab online and save it as your Personal.

You can edit, replace or remove any tab part or add personal notes – all changes will be seen only by you.

Personal tabs can be accessed anytime from any device, even offline.
Learn more »
comments
print report bad tab
9 comments total. Showing first comments. show 1 bad comment
+3 reply
inkadnido 10 Apr 13, 2008 12:36 PM

this tab is flawless
great job -claps hands-

-2 reply
atreyunderworld 31 Apr 16, 2008 04:19 PM

haha yea i seen that rock house vid:p
its sweet, dan kicks ass.
good tab 4*

guest
Wanna post a correction for this tab? Suggest correction