Oops, an error
Loading. Please wait.

Falling Down tab

version 5
version 5

Whole song

Interactive

Video

by Atreyu
6,279 views 1 this week
1 commentread comment
1 2 3 4 5
x 3
add to favorites
×
Save as Personal and add changes to this tab that will be seen only by you. Learn more ›
×
You can save this tab as Personal to edit and correct it or add notes. All changes will be seen only by you. Learn more »
launch autoscroll
font size
0
reset
how to read this tab
guitar tuner
edit
Autoscroll
slow
fast
+/-
esc
set tempo
stop
Author
Tabbed by: hunter6571
Song: Falling Down
Artist: Atreyu
Album: Lead Sails Paper Anchor
Tuning: Drop C#

okay.
This is my 2nd tab I've ever done so don't get mad because I did this in Drop C#...




Intro-0:08
Eb|-------------------------|
Bb|-------------------------|
F#|-------------------------|
C#|-------------------------| x5
Ab|-----------------------2-|
C#|6--6-4-6--6-4-6--6-4-6---|

0:22
Eb|-------------------|
Bb|-------------------|
F#|-------------------|
C#|-------------------|
Ab|--------------4----|
C#|5-5-5-5-2h4-6---2h5|

Verse-0:25
Eb|-------------------------|    |-------------------|
Bb|-------------------------|    |-------------------|
F#|-------------------------|    |-------------------|
C#|6--6-4-6--6-4-6--6-4-6-4-|x3  |5555555------------|
Ab|6--6-4-6--6-4-6--6-4-6-2-|    |5555555-------4----|
C#|6--6-4-6--6-4-6--6-4-6---|    |5555555-2h4-6---2h5|

Chorus-0:35
Eb|----------------------------------------------------------------|
Bb|----------------------------------------------------------------|
F#|4-4-4-4---------------------------------------------------------|
C#|2-2-2-2-4-4-4-4-------------------------4-4-4-4-6-6-6-6-6-6-6-6-| x2
Ab|--------2-2-2-2-6-6-6-6-2-2-2-2-6-6-6-6-2-2-2-2-4-4-4-4-4-4-4-4-|
C#|----------------6-6-6-6-2-2-2-2-6-6-6-6-------------------------|

0:57
Eb|-------------------------|
Bb|-------------------------|
F#|-------------------------|
C#|-------------------------| x2
Ab|-----------------------2-|
C#|6--6-4-6--6-4-6--6-4-6---|

Verse-1:02
Eb|-------------------------|    |-------------------|
Bb|-------------------------|    |-------------------|
F#|-------------------------|    |-------------------|
C#|6--6-4-6--6-4-6--6-4-6-4-|x3  |5-5-5-5------------|
Ab|6--6-4-6--6-4-6--6-4-6-2-|    |5-5-5-5-------4----|
C#|6--6-4-6--6-4-6--6-4-6---|    |5-5-5-5-2h4-6---2h5|

1:13
Eb|-------------------------|
Bb|-------------------------|
F#|-------------------------|
C#|-------------------------| x3
Ab|-----------------------2-|
C#|6--6-4-6--6-4-6--6-4-6---|

1:21
Eb|---------------------------------|
Bb|---------------------------------|
F#|---------------------------------|
C#|4-------------------444444222222-|
Ab|4-----------4-------444444222222-|
C#|4-----2h4-6---2h5---444444222222-|

Chorus-1:27
Eb|----------------------------------------------------------------|
Bb|----------------------------------------------------------------|
F#|4-4-4-4---------------------------------------------------------|
C#|2-2-2-2-4-4-4-4-------------------------4-4-4-4-6-6-6-6-6-6-6-6-| x2
Ab|--------2-2-2-2-6-6-6-6-2-2-2-2-6-6-6-6-2-2-2-2-4-4-4-4-4-4-4-4-|
C#|----------------6-6-6-6-2-2-2-2-6-6-6-6-------------------------|

1:49
Eb|----------------|
Bb|----------------|
F#|4-4-4-4-4-4-4-4-|
C#|2-2-2-2-2-2-2-2-|
Ab|----------------|
C#|----------------|

1:51
Eb|--------------|   |------------------|
Bb|--------------|   |------------------|
F#|--------------|   |------------------|
C#|--------------|   |------------------|
Ab|6-6-------6-6-|x3 |6-6-------6-6-6-6-|
C#|6-6-------6-6-|   |6-6-------6-6-6-6-|

Sorry, but I can't tab solos yet...
=(

Chorus-2:29
Eb|----------------------------------------------------------------|
Bb|----------------------------------------------------------------|
F#|4-4-4-4---------------------------------------------------------|
C#|2-2-2-2-4-4-4-4-------------------------4-4-4-4-6-6-6-6-6-6-6-6-| x2
Ab|--------2-2-2-2-6-6-6-6-2-2-2-2-6-6-6-6-2-2-2-2-4-4-4-4-4-4-4-4-|
C#|----------------6-6-6-6-2-2-2-2-6-6-6-6-------------------------|

2:50
Eb|----------------|
Bb|----------------|
F#|4-4-4-4-4-4-4-4-|
C#|2-2-2-2-2-2-2-2-|
Ab|----------------|
C#|----------------|

2:53
Eb|--------------|   |---|
Bb|--------------|   |---|
F#|--------------|   |---|
C#|--------------|x2 |---|
Ab|6-6-------6-6-|   |6-6|
C#|6-6-------6-6-|   |6-6|

That's the best I could do...
Sorry I didn't tab the solo.
But other than that, I think it's about 100% correct...
Please rate and/or comment.

            
            
Suggest correction
Creating personal tab
Creating personal tab
You can edit any tab online and save it as your Personal.

You can edit, replace or remove any tab part or add personal notes – all changes will be seen only by you.

Personal tabs can be accessed anytime from any device, even offline.
Learn more »
Give kudos to tab author, rate the tab!
1 2 3 4 5
comments
print report bad tab
1 comment total.
0 reply
Drool_Mouse 3,376 Apr 14, 2009 06:19 AM

everything in this tab needs to be played 1 fret up. There is another tab that is right. I know, because I've played that one, and it's basically perfect

guest
You may want to rate the tab now too:
select rating
Wanna post a correction for this tab? Suggest correction