Oops, an error
Loading. Please wait.

Lose It bass

version 2
version 2

Whole song

Interactive

by Atreyu
2,268 views 1 this week
9 commentsread comments
1 2 3 4 5
x 3
add to favorites
×
Save as Personal and add changes to this tab that will be seen only by you. Learn more ›
×
You can save this tab as Personal to edit and correct it or add notes. All changes will be seen only by you. Learn more »
launch autoscroll
font size
0
reset
guitar tuner
backing track
0:00
0:00
edit
Autoscroll
slow
fast
+/-
esc
set tempo
stop
Author
Lose It - Atreyu
This is taken straight off my guitar pro tab of the song. If you have an constructive 
or corrections feel free to let me know :)

Clean Intro


Intro
------------------------|------------------------|
------------------------|------------------------|
------------------------|------------------------|
--2-2-2-2---2-----------|-----0----0-----0----0--|

------------------------|------------------------|
------------------------|------------------------|
------------------------|------------------------|
--2-2-2-2---2-----------|-----0----0-----0----0--|

-------------------------------|-------------------|
-------------------------------|-------------------|
-------------------------------|-------------------|
--10-10-10-10-10--10-~~~~~~~~~~|~~~~---------------| (hold the note)

-------------------------|-------------------|
-------------------------|-------------------|
-------------------------|-------------------|
--7-7-7-7-7--7-~~~~~~~~~~|~~~~---------------| (hold the note)

Verse x 2

--------------------------|--------------------------|
--------------------------|--------------------------|
--------------------------|--------------------------|
--0--2--2--2--2--2--2--2--|--2--2--2--2--2--2--2--2--|

--------------------------|--------------------------|
--------------------------|--------------------------|
--------------------------|--------------------------|
--0--2--2--2--2--2--2--2--|--2--2--2--2--4--2--4--5--|

--------------------------|--------------------------|
--------------------------|--------------------------|
--3--3--3--3--3--3--3--3--|--3--3--3--3--3--3--3--3--|
--------------------------|--------------------------|

--------------------------|--------------------------|
--------------------------|--------------------------|
--------------------------|--------------------------|
--0--0--0--0--0--0--0--0--|--0--0--0--0--0--0--0--0--|


except the second time round play this instead

-----------------------|
-----------------------|
-----------------------|
--0--0--0--0-----------|

Chorus x 2

----------------------|-------|----------------------|-----|
----------------------|-------|----------------------|-----|
----------------------|-------|----------------------|-----|
--2---2---2-----------|-------|--2---2---2-----------|-----|

---------------------------|-------------------------|
---------------------------|-------------------------|
---------------------------|-------------------------|
--10---10---10~~~~~~~~~10--|--10---10---10~~~~~~~~~~~|

-----------------------|----------------------|
-----------------------|----------------------|
-----------------------|----------------------|
--7---7---7~~~~~~~~~7--|--7---7---7~~~~~~~~~~~|

Verse x 2 (play the last bar the second time like this)

--------------------------|
--------------------------|
--------------------------|
--0--0--0--0--0--0--0--0--|


Chorus x 2

Break

|-------------------|--------|--------|--------|
|-------------------|--------|--------|--------|
|-------------------|--------|--------|--------|
|--2----------------|~~~~~~~~|~~~~~~~~|~~~~~~~~| (hold the note)

|-------------------|--------|--------------------|-------------------|
|-------------------|--------|--------------------|-------------------|
|-------------------|--------|--------------------|-------------------|
|--7----------------|~~~~~~~~|--10----------------|--9----------------|

Breakdown

|-----------------------|-----------------------------|
|-----------------------|-----------------------------|
|-----------------------|-----------------------------|
|--2----2----2----------|--2-2-2-2-2-2-2-2-2----------|

-----------------------|-----------------------------|
-----------------------|-----------------------------|
-----------------------|-----------------------------|
--2----2----2----------|--2-2-2-2-2-2-2-2-2----------|

-----------------------|-----------------------------|
-----------------------|-----------------------------|
-----------------------|-----------------------------|
--7----7----7----------|--7-7-7-7-7-7-7-7-7----------|

--------------------------|-----------------------------|
--------------------------|-----------------------------|
--------------------------|-----------------------------|
--10----10----10----------|--9-9-9-9-9-9-9-9-9----------|

|-----------------------|-----------------------------|
|-----------------------|-----------------------------|
|-----------------------|-----------------------------|
|--2----2----2----------|--2-2-2-2-2-2-2-2-2----------|

-----------------------|-----------------------------|
-----------------------|-----------------------------|
-----------------------|-----------------------------|
--2----2----2----------|--2-2-2-2-2-2-2-2-2----------|

--------------------------|--------------------------------------|
--------------------------|--------------------------------------|
--------------------------|--------------------------------------|
--10----10----10----------|--10-10-10-10-10-10-10-10-10----------|

-----------------------|-----------------------------|
-----------------------|-----------------------------|
-----------------------|-----------------------------|
--7----7----7----------|--7-7-7-7-7-7-7-7-7----------|

Chorus x 2 (except play this for the first 2 bars the first time round)

----------------------|----------------------|
----------------------|----------------------|
----------------------|----------------------|
--2---2---2-----------|---------------14\----|


Bridge

------------------------|------------------------|
------------------------|------------------------|
------------------------|------------------------|
--2---2---2--4---4---4--|--5---5---5--9---9---9--|

Outro (same as intro)

And end with this

|------------------------|
|------------------------|
|------------------------|
|--2-2-2-2---2-----------|

            
            
Suggest correction
Creating personal tab
Creating personal tab
You can edit any tab online and save it as your Personal.

You can edit, replace or remove any tab part or add personal notes – all changes will be seen only by you.

Personal tabs can be accessed anytime from any device, even offline.
Learn more »
Give kudos to tab author, rate the tab!
1 2 3 4 5
comments
print report bad tab
9 comments total. Showing first comments.
0 reply
Lemurs4mangos 1,616 Sep 20, 2008 02:50 PM

Make it eaiser to read and I'll change to 5*'s just put the parts together...

0 reply
Lemurs4mangos 1,616 Dec 01, 2008 01:49 PM

Much better man, Thanks

0 reply
frankibo 1,416 Dec 02, 2008 06:55 AM

youre welcomee

guest
You may want to rate the tab now too:
select rating
Wanna post a correction for this tab? Suggest correction