Oops, an error
Loading. Please wait.

Moments Before Dawn tab

by Atreyu
133 views 9 this week
no commentswrite comment
1 2 3 4 5
2 more votes to show rating
add to favorites
×
Save as Personal and add changes to this tab that will be seen only by you. Learn more ›
×
You can save this tab as Personal to edit and correct it or add notes. All changes will be seen only by you. Learn more »
launch autoscroll
font size
0
reset
how to read this tab
guitar tuner
edit
Autoscroll
slow
fast
+/-
esc
set tempo
stop
About this tab version
Full Guitar Tab Version with Solo. Please vote or comment. Was this info helpful? Yes No
[Intro Rhythm Track]

   PM all chords
D|---------------------------------------------|----------------------------------------------|
A|---------------------------------------------|----------------------------------------------|
F|---------------------------------------------|----------------------------------------------|
C|-4--4--4--4--4-----4-4-4--4--4--4--4-----4-4-|-4--4--4--4--4-----4-4-4--4--4--4--4/5--4--0--|
G|-2--2--2--2--2-----2-2-2--2--2--2--2-----2-2-|-4--4--4--4--4-----4-4-4--4--4--4--4/5--4--0--|
C|-4--4--4--4--4-----4-4-4--4--4--4--4-----4-4-|-4--4--4--4--4-----4-4-4--4--4--4--4/5--4--0--|

D|---------------------------------------------|-----------------------------------------------|
A|---------------------------------------------|-----------------------------------------------|
F|---------------------------------------------|-----------------------------------------------|
C|-2--2--2--2--2-----2-2-2--2--2--2--2-----2-2-|-4--4--4--4--4-----4-4-4-----------------------|
G|-2--2--2--2--2-----2-2-2--2--2--2--2-----2-2-|-4--4--4--4--4-----4-4-4--5--7--5--4--7--7--7--|
C|-2--2--2--2--2-----2-2-2--2--2--2--2-----2-2-|-4--4--4--4--4-----4-4-4--5--7--5--4--7--7--7--|



[Intro Part 1]

   (0:40) legato
D|-----------------------------------|-----------------------------------|
A|--/15----\7----/15----\7---/15-/17-|-14-----\5----/14~~----------------|
F|-----------------------------------|-----------------------------------|
C|-----------------------------------|-----------------------------------|
G|-----------------------------------|-----------------------------------|
C|-----------------------------------|-----------------------------------|

D|-----------------------------------|-----------------------------------|
A|-12---\3---/12---\3---/12-14-14-11-|-11---\2---/11~----------11-14-14/-|
F|-----------------------------------|-----------------------------------|
C|-----------------------------------|-----------------------------------|
G|-----------------------------------|-----------------------------------|
C|-----------------------------------|-----------------------------------|


[Intro Part 2]

   Intro Par 1 Repeats, this part adds harmony:

D|-14---\7---/14---\7---/14-14-15-15-|-12----\3----/12~~-----------------|
A|-----------------------------------|-----------------------------------|
F|-----------------------------------|-----------------------------------|
C|-----------------------------------|-----------------------------------|
G|-----------------------------------|-----------------------------------|
C|-----------------------------------|-----------------------------------|

D|-10---\2---/10---\2---/10/12-12----|--------------------------12-12-14-|
A|--------------------------------14-|-14---\5---/14---------------------|
F|-----------------------------------|-----------------------------------|
C|-----------------------------------|-----------------------------------|
G|-----------------------------------|-----------------------------------|
C|-----------------------------------|-----------------------------------|



[Verse]

   Both parts         Rhythm only 
D|-14~--------------|------------------|-------------------|---------------------|
A|-15~--------------|------------------|-------------------|---------------------|
F|------------------|------------------|-------------------|---------------------|
C|-4----------------|-------------4----|-4------------4----|-0---------2---------|
G|-2----------------|-------------2----|-4------------4----|-0---------0---------|
C|------------------|------------------|-4------------4----|-0-------------------|


[Prechorus]
D|---------------------------------------------|---------------------------------------------|
A|---------------------------------------------|---------------------------------------------|
F|---------------------------------------------|---------------------------------------------|
C|-5--5--5--5--5-----5-5-5--5--5--5--5-----5-5-|---------------------------------------------|
G|-5--5--5--5--5-----5-5-5--5--5--5--5-----5-5-|-5--5--5--5--5-----4/7--7--7--7--7--7--7--7--|
C|-5--5--5--5--5-----5-5-5--5--5--5--5-----5-5-|-4--4--4--4--4-----4/7--7--7--7--7--7--7--7--|
   PM*********************************************************



[Chorus]

   Rhythm Part
D|--------------------|-------------------|-------------------|--------------------|
A|--------------------|-------------------|-------------------|--------------------|
F|--------------------|-------------------|-------------------|--------------------| 
C|-9------------------|-4-----------------|-0-----------------|-7------------------|
G|-9------------------|-4-----------------|-0-----------------|-7------------------|
C|-9------------------|-4-----------------|-0-----------------|-7------------------|

D|--------------------|-------------------|-------------------|--------------------|
A|--------------------|-------------------|-------------------|--------------------|
F|--------------------|-------------------|-------------------|--------------------| 
C|-9------------------|-4-----------------|-0-----------------|-7------------------|
G|-9------------------|-4-----------------|-0-----------------|-7--------9---------|
C|-9------------------|-4-----------------|-0-----------------|-7--------8---------|


   Lead part, with octave fuzz?
D|--------------------|-------------------|--------------------|-------------------|
A|--------------------|-------------------|--------------------|-------------------|
F|--------------------|-------------------|--------------------|-------------------|
C|--------------------|-------------------|--------------------|-------------------| play 2x
G|-7-7-7-5-5~-----7/9-|-7-7-7-5---4-4-----|-7-7-7-5-5~-----7/9-|-7-7-7-5---4-5-4~--|
C|--------------------|-------------------|--------------------|-------------------|



[Verse 2]

Rhythm (just like Intro)
D|---------------------------------------------|----------------------------------------------|
A|---------------------------------------------|----------------------------------------------|
F|---------------------------------------------|----------------------------------------------|
C|-4--4--4--4--4-----4-4-4--4--4--4--4-----4-4-|----------------------------------------------|
G|-2--2--2--2--2-----2-2-2--2--2--2--2-----2-2-|-4--4--4--4--4-----4-4-4--4--4--4--4/5--4--0--|
C|-4--4--4--4--4-----4-4-4--4--4--4--4-----4-4-|-4--4--4--4--4-----4-4-4--4--4--4--4/5--4--0--|

D|---------------------------------------------|----------------------------------------------|
A|---------------------------------------------|----------------------------------------------|
F|---------------------------------------------|----------------------------------------------|
C|---------------------------------------------|----------------------------------------------|
G|-2--2--2--2--2-----2-2-2--2--2--2--2-----2-2-|-4--4--4--4--4-----4-4-4--5--7--5--4---7------|
C|-2--2--2--2--2-----2-2-2--2--2--2--2-----2-2-|-4--4--4--4--4-----4-4-4--5--7--5--4---7------|


Lead
D|----------------------------------------------|---------------------------------------------|
A|-15--------/15---------15----15---15----15-17-|-----------------------14--------------------|
F|-16--------/16---------16----16---16----16----|-15---------------15---15---------15---------|
C|----------------------------------------------|-16---------------16--------------16---------|
G|----------------------------------------------|---------------------------------------------|
C|----------------------------------------------|---------------------------------------------|

D|----------------------------------------------|------------------------------------|
A|----------------------------------------------|------------------------------------|
F|-16-------------------------------------------|-15---------------------------------|
C|-17------------------------------19\----------|-16---------------------------------|
G|----------------------------------------------|------------------------------------|
C|----------------------------------------------|------------------------------------|

   continue with Intro Lead Part:
D|-14---\7---/14---\7---/14-15-15---|-12----\3----/12~~-----------------|
A|-15---\7---/15---\7---/15-17-17---|-14----\5----/14~~-----------------|
F|----------------------------------|-----------------------------------|
C|----------------------------------|-----------------------------------|
G|----------------------------------|-----------------------------------|
C|----------------------------------|-----------------------------------|

D|-10---\2---/10---\2---/10/12-12--9-|--9\---0---/9-------------12-12-14-|
A|-12---\3---/12---\3---/12-14-14-11-|-11---\2---/11------------14-14-15-|
F|-----------------------------------|-----------------------------------|
C|-----------------------------------|-----------------------------------|
G|-----------------------------------|-----------------------------------|
C|-----------------------------------|-----------------------------------|



[Prechorus 2]
    Lead                                                            heavy tremelo bar vibrato
D|--14----------------------------14/15--15\12-|-12-----------------12~~~~~~-----------------|
A|--15----------------------------15/17--17\14-|-14-----------------14~~~~~~-----------------|
F|---------------------------------------------|---------------------------------------------|
C|---------------------------------------------|---------------------------------------------|
G|---------------------------------------------|---------------------------------------------|
C|---------------------------------------------|---------------------------------------------|
 |
 |  Rhythm
D|---------------------------------------------|---------------------------------------------|
A|---------------------------------------------|---------------------------------------------|
F|---------------------------------------------|---------------------------------------------|
C|-5--5--5--5--5-----5-5-5--5--5--5--5-----5-5-|---------------------------------------------|
G|-5--5--5--5--5-----5-5-5--5--5--5--5-----5-5-|-5--5--5--5--5-----4/7--7--7--7--7--7--7--7--|
C|-5--5--5--5--5-----5-5-5--5--5--5--5-----5-5-|-4--4--4--4--4-----4/7--7--7--7--7--7--7--7--|
   PM*********************************************************



[Chorus]

   Rhythm Part
D|--------------------|-------------------|-------------------|--------------------|
A|--------------------|-------------------|-------------------|--------------------|
F|--------------------|-------------------|-------------------|--------------------| 
C|-9------------------|-4-----------------|-0-----------------|-7------------------|
G|-9------------------|-4-----------------|-0-----------------|-7------------------|
C|-9------------------|-4-----------------|-0-----------------|-7------------------|

D|--------------------|-------------------|-------------------|--------------------|
A|--------------------|-------------------|-------------------|--------------------|
F|--------------------|-------------------|-------------------|--------------------| 
C|-9------------------|-4-----------------|-0-----------------|-7------------------|
G|-9------------------|-4-----------------|-0-----------------|-7--------9---------|
C|-9------------------|-4-----------------|-0-----------------|-7--------8---------|


   Lead part, with octave fuzz and harmonist
D|--------------------|-------------------|--------------------|-------------------|
A|--------------------|-------------------|--------------------|-------------------|
F|--------------------|-------------------|--------------------|-------------------| play 2x
C|--------------------|-------------------|--------------------|-------------------|
G|-7-7-7-5-5~-----7/9-|-7-7-7-5---4-4-----|-7-7-7-5-5~-----7/9-|-7-7-7-5---4-5-4~--|
C|--------------------|-------------------|--------------------|-------------------|



[Solo]

D|-----------------------------------|------------------------------------------|
A|-7/15----\7----/15----\7---/15-/17-|-15----\5----/14~~~---12-12-12--14--14/15-|
F|-----------------------------------|------------------------------------------|
C|-----------------------------------|------------------------------------------|
G|-----------------------------------|------------------------------------------|
C|-----------------------------------|------------------------------------------|

D|------------------------------------------|------------------------------------|
A|-15\14-14\12-12\10-10\8-8\7-7\5-5h7p5-----|----------7/10----------------------|
F|--------------------------------------7\6-|-6/7-9/11------11\9~---9-9-9--7--7--|
C|------------------------------------------|------------------------------------|
G|------------------------------------------|------------------------------------|
C|------------------------------------------|------------------------------------|

D|-17-14------14-19-14------14-21-17------17-21-22-21-19----|
A|------15--15--------15--15--------19--19------------------|
F|--------14------------14------------18--------------------|
C|----------------------------------------------------------|
G|----------------------------------------------------------|
C|----------------------------------------------------------|

   tremelo picking (wraps around to the following line)
D|-----------------------------------------------------------------------------------------------|
A|------------------------------14-15-17-15-14-15-17-19-17-15-19TP-20p19-19h20-20-20-22p20-20h22-|
F|-14-16-18-16-14-16-18-19-18-16-----------------------------------------------------------------|
C|-----------------------------------------------------------------------------------------------|
G|-----------------------------------------------------------------------------------------------|
C|-----------------------------------------------------------------------------------------------|

                                        * Chorus starts again
D|-18TP-19p18-18h19-19-19-21p19-19h21-|-22~--------------------------22/24-24-21-|
A|------------------------------------|------------------------------------------|
F|------------------------------------|------------------------------------------|
C|------------------------------------|------------------------------------------|
G|------------------------------------|------------------------------------------|
C|------------------------------------|------------------------------------------|

D|-21~-------21-19-17~---------------|
A|-----------------------------------|
F|-----------------------------------|
C|-----------------------------------|
G|-----------------------------------|
C|-----------------------------------|


[Final Chorus]

   Rhythm Part
D|--------------------|-------------------|-------------------|--------------------|
A|--------------------|-------------------|-------------------|--------------------|
F|--------------------|-------------------|-------------------|--------------------| 
C|-9------------------|-4-----------------|-0-----------------|-7------------------|
G|-9------------------|-4-----------------|-0-----------------|-7------------------|
C|-9------------------|-4-----------------|-0-----------------|-7------------------|

D|--------------------|-------------------|-------------------|--------------------|
A|--------------------|-------------------|-------------------|--------------------|
F|--------------------|-------------------|-------------------|--------------------| 
C|-9------------------|-4-----------------|-0-----------------|-7------------------|
G|-9------------------|-4-----------------|-0-----------------|-7------------------|
C|-9------------------|-4-----------------|-0-----------------|-7------------------|


   Lead part, with octave fuzz?
D|--------------------|-------------------|--------------------|-------------------|
A|--------------------|-------------------|--------------------|-------------------|
F|--------------------|-------------------|--------------------|-------------------|
C|--------------------|-------------------|--------------------|-------------------| play 2x
G|-7-7-7-5-5~-----7/9-|-7-7-7-5---4-4-----|-7-7-7-5-5~-----7/9-|-7-7-7-5---4-5-4~--|
C|--------------------|-------------------|--------------------|-------------------|


[Ending]
D|---------------------------------------|
A|---------------------------------------|
F|-9--9/11--9/11-11-11-11-7--7--7--7-----|
C|---------------------------------------|
G|-7--7/9---7/9--9--9--9--5--5--5--5-----|
C|---------------------------------------|

Play Intro Again:

   Rhythm - PM all chords
D|---------------------------------------------|----------------------------------------------|
A|---------------------------------------------|----------------------------------------------|
F|---------------------------------------------|----------------------------------------------|
C|-4--4--4--4--4-----4-4-4--4--4--4--4-----4-4-|-4--4--4--4--4-----4-4-4--4--4--4--4/5--4--0--|
G|-2--2--2--2--2-----2-2-2--2--2--2--2-----2-2-|-4--4--4--4--4-----4-4-4--4--4--4--4/5--4--0--|
C|-4--4--4--4--4-----4-4-4--4--4--4--4-----4-4-|-4--4--4--4--4-----4-4-4--4--4--4--4/5--4--0--|

D|---------------------------------------------|---------------------------------------------|
A|---------------------------------------------|---------------------------------------------|
F|---------------------------------------------|---------------------------------------------|
C|-2--2--2--2--2-----2-2-2--2--2--2--2-----2-2-|-4--4--4--4--4-----4-4-4---------------------|
G|-2--2--2--2--2-----2-2-2--2--2--2--2-----2-2-|-4--4--4--4--4-----4-4-4--5--7--5--4--7------|
C|-2--2--2--2--2-----2-2-2--2--2--2--2-----2-2-|-4--4--4--4--4-----4-4-4--5--7--5--4--7------|

D|---------------------------------------------|----------------------------------------------|
A|---------------------------------------------|----------------------------------------------|
F|---------------------------------------------|----------------------------------------------|
C|-4--4--4--4--4-----4-4-4--4--4--4--4-----4-4-|-4--4--4--4--4-----4-4-4--4--4--4--4/5--4--0--|
G|-2--2--2--2--2-----2-2-2--2--2--2--2-----2-2-|-4--4--4--4--4-----4-4-4--4--4--4--4/5--4--0--|
C|-4--4--4--4--4-----4-4-4--4--4--4--4-----4-4-|-4--4--4--4--4-----4-4-4--4--4--4--4/5--4--0--|

D|---------------------------------------------|----------------------------------------------|
A|---------------------------------------------|----------------------------------------------|
F|---------------------------------------------|----------------------------------------------|
C|-2--2--2--2--2-----2-2-2--2--2--2--2-----2-2-|-4--4--4--4--4-----4-4-4----------------------|
G|-2--2--2--2--2-----2-2-2--2--2--2--2-----2-2-|-4--4--4--4--4-----4-4-4--5--7--5--4----------|
C|-2--2--2--2--2-----2-2-2--2--2--2--2-----2-2-|-4--4--4--4--4-----4-4-4--5--7--5--4----------|



************************************

| h   Hammer-on
| p   Pull-off
| r   Release
| b   Bend
| /   Slide up
| \   Slide down
| ~   Vibrato
| PM  Palm mute
| TP  Tremolo Picking (repeated note)

************************************

            
            
Suggest correction
Creating personal tab
Creating personal tab
You can edit any tab online and save it as your Personal.

You can edit, replace or remove any tab part or add personal notes – all changes will be seen only by you.

Personal tabs can be accessed anytime from any device, even offline.
Learn more »
Give kudos to tab author, rate the tab!
1 2 3 4 5
comments
print report bad tab
guest
You may want to rate the tab now too:
select rating
Wanna post a correction for this tab? Suggest correction