Oops, an error
Loading. Please wait.
We have an official Right Side Of The Bed tab made by UG professional guitarists. Check out the tab »
×
by Atreyu
2,424 views 1 this week
3 commentsread comments
1 2 3 4 5
x 5
add to favorites
×
Save as Personal and add changes to this tab that will be seen only by you. Learn more ›
×
You can save this tab as Personal to edit and correct it or add notes. All changes will be seen only by you. Learn more »
launch autoscroll
font size
0
reset
guitar tuner
edit
Autoscroll
slow
fast
+/-
esc
set tempo
stop
Difficulty
intermediate
~ - hold note
/ - slide

intro (2x)
F|----------------------------------------------------------------------|
C|----------------------------------------------------------------------|
G|---------------------------------------------------------8-8-8--------|
C|--0-0-0-0-12-0-10-0-0-8-8-8-10-10-10-0-0-0-0-12-0-10-0-0-------8-8-8--|

F|----------------------------------------------------------------------|
C|----------------------------------------------------------------------|
G|----------------------------------------------------------------------|
C|--0-0-0-0-12-0-10-0-0-8-8-8-10-10-10-7-7-7-7-7-7-7-8-8-8-8-8-8-8------|

verse (1x)
F|----------------------------------------------------------------------|
C|----------------------------------------------------------------------|
G|----------------------------------------------------------------------|
C|--0-0----0-0-0--0-0-8-8-0-3-3-3-0-0----0-0-0--0-0-8-8-0-3-3-3-0-0-----|

F|----------------------------------------------------------------------|
C|----------------------------------------------------------------------|
G|----------------------------------------------------------------------|
C|--0-0--------0-0----0-8-8-0-3-3-0-0--------7-7-7-7-7-8-8-8-8-8--------|

chorus (3x)
F|----------------------------------------------------------------------|
C|----------------------------------------------------------------------|
G|------------------------1-1-1-1-1-1-3-3-3-3-3-3-----------------------|
C|--0-0-0-0-0-3-3-3-3-3-3-----------------------------------------------|

4th time play this
F|----------------------------------------------------------------------|
C|----------------------------------------------------------------------|
G|------------------------1-1-1-1-1-1-3-3-3-3-3-3-----------------------|
C|--0-0-0-0-0-3-3-3-3-3-3-------------------------7-7-7-7-7-8-8-8-8-8---|

verse (1x)
F|----------------------------------------------------------------------|
C|----------------------------------------------------------------------|
G|----------------------------------------------------------------------|
C|--0-0----0-0-0--0-0-8-8-0-3-3-3-0-0----0-0-0--0-0-8-8-0-3-3-3-0-0-----|

F|----------------------------------------------------------------------|
C|----------------------------------------------------------------------|
G|----------------------------------------------------------------------|
C|--0-0--------0-0----0-8-8-0-3-3-0-0--------7-7-7-7-7-8-8-8-8-8--------|

chorus (3x)
F|----------------------------------------------------------------------|
C|----------------------------------------------------------------------|
G|------------------------1-1-1-1-1-1-3-3-3-3-3-3-----------------------|
C|--0-0-0-0-0-3-3-3-3-3-3-----------------------------------------------|

4th time play this
F|----------------------------------------------------------------------|
C|----------------------------------------------------------------------|
G|------------------------1-1-1-1-1-1-3-3-3-3-3-3-0---------------------|
C|--0-0-0-0-0-3-3-3-3-3-3-----------------------------------------------|

interlude (1x)
F|----------------------------------------------------------------------|
C|----------------------------------------------------------------------|
G|--1-1-1-1-1-1-1-1-1-1-1-1-1-1-1-1-3-3-3-3-3-3-3-3-3-3-3-3-3-3-3-3-----|
C|----------------------------------------------------------------------|

F|----------------------------------------------------------------------|
C|----------------------------------------------------------------------|
G|----------------------------------------------------------------------|
C|--0-0-0-0-0-0-0-0-0-0-0-0-0-0-0-0-3-3-3-3-3-3-3-3-3-3-3-3-3-3-3-3-----|

F|----------------------------------------------------------------------|
C|----------------------------------------------------------------------|
G|--1-1-1-1-1-1-1-1-1-1-1-1-1-1-1-1-3-3-3-3-3-3-3-3-3-3-3-3-3-3-3-3-----|
C|----------------------------------------------------------------------|

F|----------------------------------------------------------------------|
C|----------------------------------------------------------------------|
G|----------------------------------------------------------------------|
C|--0-0-0-------------------------------------0-0-0---------------------|

F|------------------------------------------------------------------------|
C|------------------------------------------------------------------------|
G|--0-0-0-0-0-0-0-1-1-1-1-1-1-----------3-1-1-1---------------3-1-1-1-1-1-|
C|----------------------------3-2-0-0-0---------3-2-0-0-0-0-0-------------|

F|----------------------------------------------------------------------|
C|----------------------------------------------------------------------|
G|--3-3-3-------3-1-1-1---------------3-1-1-1-1-1-3-3-3-0~-------1~-----|
C|--------0-0-0---------3-2-0-0-0-0-0-----------------------------------|

during guitar solo
F|----------------------------------------------------------------------|
C|----------------------------------------------------------------------|
G|--5-5-5-5-5-5-5-5-5-5-5-5-5-5-5-5-1-1-1-1-1-1-1-1-1-1-1-1-1-1-1-1-----|
C|----------------------------------------------------------------------|

F|----------------------------------------------------------------------|
C|----------------------------------------------------------------------|
G|--5-5-5-5-5-5-5-5-5-5-5-5-5-5-5-5-1-1-1-1-1-1-1-1-1-1-1-1-1-1-1-1-----|
C|----------------------------------------------------------------------|

F|----------------------------------------------------------------------|
C|----------------------------------------------------------------------|
G|----------------------------------1-1-1-1-1-1-1-1-1-1-1-1-1-1-1-1-----|
C|--0-0-0-0-0-0-0-0-0-0-0-0-0-0-0-0-------------------------------------|

F|----------------------------------------------------------------------|
C|----------------------------------------------------------------------|
G|--5-5-5-5-5-5-5-5-5-5-5-5-5-5-5-5-1-1-1-1-1-1-1-1-1-1-1-1-1-1-1-1-----|
C|----------------------------------------------------------------------|

F|----------------------------------------------------------------------|
C|----------------------------------------------------------------------|
G|----------------------------------------------------------------------|
C|---------------------------------//////////////////0~-----------------|

F|----------------------------------------------------------------------|
C|----------------------------------------------------------------------|
G|--0-0-0-0-0-0-0-1-1-1-1-1-1-1-----------------------------------------|
C|----------------------------------------------------------------------|

outro (3x)
F|----------------------------------------------------------------------|
C|----------------------------------------------------------------------|
G|------------------------1-1-1-1-1-1-3-3-3-3-3-3-----------------------|
C|--0-0-0-0-0-3-3-3-3-3-3-----------------------------------------------|

4th time play this
F|----------------------------------------------------------------------|
C|----------------------------------------------------------------------|
G|------------------------1-1-1-1-1-1-3-3-3-3-3-3-----------------------|
C|--0-0-0-0-0-3-3-3-3-3-3-------------------------7-7-7-7-7-8-8-8-8-8---|

tabbed by nick
disposablehero_666@hotmail.com


            
            
Suggest correction
Creating personal tab
Creating personal tab
You can edit any tab online and save it as your Personal.

You can edit, replace or remove any tab part or add personal notes – all changes will be seen only by you.

Personal tabs can be accessed anytime from any device, even offline.
Learn more »
comments
print report bad tab
3 comments total.
+1 reply
Cool mo dee 10 Sep 06, 2006 10:02 AM

Really good tab dude

+1 reply
Robin Graves 1,015 Sep 12, 2006 06:07 AM

there's a piece in the song that goes something like this. you can hear it if you listen.

A--5-3-5-3-7h8p7-5-3-5-3-7hp8p7/3--------
D--------------------------------0-0-----

i know the tuning is in drop c,and this may not even be right, but you can hear the piece that's something like this. I think it's after the chorus.

+1 reply
Atreyu92 10 May 19, 2007 02:52 PM

F|--------------------------------------------------------------------
C|-------------------------------------------------------------------
G|----------------------------------------------------8-8-8-----
C|--0-0-0-0-12-0-10-0-0-8-8-8-0-0-0-0-12-0-10-0-0-8-8-

Im pretty sure thats how the first part of the intro goes

guest
Wanna post a correction for this tab? Suggest correction