Oops, an error
Loading. Please wait.

Shameful bass

version 1
version 1

Whole song

Interactive

by Atreyu
446 views 1 this week
3 commentsread comments
1 2 3 4 5
1 last vote to show rating
add to favorites
×
Save as Personal and add changes to this tab that will be seen only by you. Learn more ›
×
You can save this tab as Personal to edit and correct it or add notes. All changes will be seen only by you. Learn more »
launch autoscroll
font size
0
reset
guitar tuner
edit
Autoscroll
slow
fast
+/-
esc
set tempo
stop
-----------------------------------------------------------------------------
			     Shameful - Atreyu
-----------------------------------------------------------------------------

Tabbed By : boyan89
e-mail: boyan_rocks@hotmail.com

Tuning:drop c


Intro
G|--------------------------------------------------------|
D|--------------------------------------------------------|
A|------555-----555----5----5-----555-------555-----------|
c|--000-----000-----00---00---000------000------0000------|

Verse
G|--------------------------------------------------------|
D|--------------------------------------------------------|
A|------555-----555----5----5----555-----5----------------|
c|-000------000-----00---0---000------00---0--------------|

Verse pt.2
G|---------------------------------------------------------|
D|---------------------------------------------------------|
A|-111-333-8-8-8-8-8-8-8-111-333-10-10-10-10-10-10-10-10---|
c|---------------------------------------------------------|

Chorus
G|------------------------------------------------------|
D|------------------------------------------------------|
A|-555555555-111111111-333333333------------------------|
c|-------------------------------555555555--------------|

Chorus pt 2
G|------------------------------------------------|
D|------------------------------------------------|
A|--55555555-11111111-333333333-1111--------------|
c|------------------------------------5555--------|

Verse
G|---------------------------------------------------|
D|---------------------------------------------------|
A|---------------------------------------------------|
c|-000--000--00-0-00--000-000------------------------|


Verse pt 2
G|-----------------------------------------------------|
D|-----------------------------------------------------|
A|-----------------------------------------------------|
c|-111-333-8-8-8-8-8-8-8--111-333--1010101010101010----|

Bridge
G|----------------------------------------------------------------------------------|
D|----------------------------------------------------------------------------------|
A|-------------5555-4444-1111--3333--55555555-1111-3333-5555-4444-1111111-33333333--|
c|--3333-5555-----------------------------------------------------------------------|

Chorus

Outro
G|-----------------|
D|-----------------|
A|-1111-1----------|
c|---------5555-5--|

Their wasnt any bass tabs for this so i decided to tab it i play guitar but this is just 
amazing song so i had to tab bass.:D:D:D:D:D:D:D::D. E-mail me for corrections.

            
            
Suggest correction
Creating personal tab
Creating personal tab
You can edit any tab online and save it as your Personal.

You can edit, replace or remove any tab part or add personal notes – all changes will be seen only by you.

Personal tabs can be accessed anytime from any device, even offline.
Learn more »
Give kudos to tab author, rate the tab!
1 2 3 4 5
comments
print report bad tab
3 comments total.
0 reply
ben_trivium 51 May 01, 2006 03:37 AM

they only ever play in cgcf (drop c)

0 reply
boyan89 812 May 01, 2006 05:31 PM

whoops i forgot i dropped c

0 reply
Stretch_Wilson 649 Sep 30, 2007 06:15 AM

the tab is incorrect there is a proper way to play the song and this only has a bit of the proper elements of this classic, sorry dude

guest
You may want to rate the tab now too:
select rating
Wanna post a correction for this tab? Suggest correction