Oops, an error
Loading. Please wait.

Shameful bass

version 3
version 3

Whole song

Interactive

by Atreyu
214 views 1 this week
2 commentsread comments
1 2 3 4 5
3 more votes to show rating
add to favorites
×
Save as Personal and add changes to this tab that will be seen only by you. Learn more ›
×
You can save this tab as Personal to edit and correct it or add notes. All changes will be seen only by you. Learn more »
launch autoscroll
font size
0
reset
guitar tuner
edit
Autoscroll
slow
fast
+/-
esc
set tempo
stop
#----------------------------------PLEASE NOTE---------------------------------#
#This file is the author's own work and represents their interpretation of the #
#song. You may only use this file for private study, scholarship, or research. #
#------------------------------------------------------------------------------##

                               ALEX VAR (Bassline)
                              As recorded by Atreyu
                 (From the 2006 Album A DEATH GRIP ON YESTERDAY)

Words and Music by Alex Varkatzas, Dan Jacobs, Travis Miguel, Brandon Saller and Mark McKnight
Arranged by Atreyu
Transcribed by Derek Line/Jeff Perrin

Gtr I (C G C F) - 'Bass'

 Intro
  Fast Q=162
 4/4
  Gtr I
  W          W          W          W
|----------|----------|----------|------|
|----------|----------|----------|------|
|----------|----------|----------|------|
|----------|----------|----------|------|


  W          +W           S S S S S S E +Q   S S S S   S S E +Q   E E E E
|----------|------------|----------------------------|----------------------||
|----------|------------|----------------------------|----------------------||
|----------|------------|----------------------------|----------------------||
|-0--------|-(0)--------|-8-8-8-8-8-8-8-(8)--5-5-5-5-|-5-5-5-(5)--5-5-5-5---||


   1st Verse
    E E E E E E E E   E E E E E E E E   E E E E E E E E   E E E E E E E E
||------------------|-----------------|-----------------|-----------------|
||o-----------------|-----------------|-----------------|-----------------|
||o-------5-5-5-----|---5-5-5-----5---|-5-----5-5-5-----|---5-5-5-----5-5-|
||--0-0-0-------0-0-|-0-------0-0---0-|---0-0-------0-0-|-0-------0-0-----|


  E E E E E E E E   E E E E E E E E   E E E E E E E E   E E E E E E E E
|-----------------|-----------------|-----------------|-------------------||
|-----------------|-----------------|-----------------|------------------o||
|-----------------|-----------------|-----------------|------------------o||
|-8-8-8-8-8-8-8-8-|-8-8-8-8-8-8-8-8-|-5-5-5-5-5-5-5-5-|-5-5-5-5-5-5-5-5---||


   2nd Verse
    E E E E E E E E   E E E E E E E E   E E E E E E E E   E E E E E E E E
||------------------|-----------------|-----------------|-----------------|
||o-----------------|-----------------|-----------------|-----------------|
||o-5-5-5-5-5-5-5-5-|-5-5-5-5-5-5-5-3-|-5-5-5-5-5-5-5-5-|-5-5-5-5-5-5-5-5-|
||------------------|-----------------|-----------------|-----------------|


  E E E E E E E E   E E E E E E E E   E E E E E E E E   E E E E E E E E
|-----------------|-----------------|-----------------|-------------------||
|-----------------|-----------------|-----------------|------------------o||
|-----------------|-------3-5-5-3-3-|-----------------|-------3-3-3-3-3--o||
|-3-3-3-3-3-3-3-3-|-3-3-3-----------|-5-5-5-5-5-5-5-5-|-5-5-5-------------||


   Chorus
    $
    $$
    E E E E +E  E E E   +E  E E E E E Q
||--------------------|-------------------|
||o-------------------|-------------------|
||o-5-5-5-5-(5)-5-5-5-|-(5)-5-5-5-5-5-5\--|
||--------------------|-------------------|


  E E E E +E  E E E   +E  E E E E E E E
|-------------------|--------------------|
|-------------------|--------------------|
|-1-1-1-1-(1)-1-1-1-|-(1)-1-1-1-1-1-1-1/-|
|-------------------|--------------------|


                            To Dbl. Coda
  E E E E +E  E E E   +E  E E E +E  E E E
|-------------------|---------------------|
|-------------------|---------------------|
|-3-3-3-3-(3)-3-3-3-|-(3)-3-3-3-(3)-3-3-3-|
|-------------------|---------------------|


  1.,D.S.,D.S.S.
                               To Coda
  E E E E +E  E E E   E E E E +E  E E E
|-------------------|---------------------||
|-------------------|--------------------o||
|-------------------|-----------------5--o||
|-5-5-5-5-(5)-5-5-5-|-5-5-5-5-(5)-5-5-----||


  2.
  E E E E E E E E   E Q  E E E E E    W          W
|-----------------|----------------||----------|------||
|-----------------|----------------||----------|------||
|-1-1-1-1-1-1-----|----------------||----------|------||
|-------------5-5-|-5-5--5-5-5-5-5-||----------|------||


   3rd Verse
    E E q  Q  E E   q  Q  E E E E   E E q  Q  E E   q  Q  E E E E
||----------------|---------------|---------------|----------------|
||o---------------|---------------|---------------|----------------|
||o---------------|---------------|---------------|----------------|
||--0-0-0-----0-0-|-0-----0-0---0-|---0-0-----0-0-|-0-----0-0-0-3/-|


                                                          D.S. al Coda
  E E E E E E E E   E E E E E E E E   E E E E E E E E   E E E E E E E E
|-----------------|-----------------|-----------------|-------------------||
|-----------------|-----------------|-----------------|------------------o||
|-----------------|-----------------|-----------------|------------------o||
|-8-8-8-8-8-8-8-8-|-8-8-8-8-8-8-8-8-|-5-5-5-5-5-5-5-5-|-5-5-5-5-5-5-5-5---||


 Bridge
  &
  E E E E E E E E    E  E  E  E  E  E E E
|-----------------|-----------------------|
|-----------------|-----------------------|
|-8-8-8-8-8-8-8-8-|-10-10-10-10-10-10---5-|
|-----------------|-----------------------|


  E E S E. E E S E.   E E S E. E E Q
|-------------------|-------------------|
|-------------------|-------------------|
|-5-5-5-5--5-5-5-5--|-4-4-4-4--4-4-4\---|
|-------------------|-------------------|


  E E E E E E E E   E E E E E E E E   E E E E E E E E   E E E E E E E E
|-----------------|-----------------|-----------------|-------------------|
|-----------------|-----------------|-----------------|-------------------|
|-1-1-1-1-1-1-1-1-|-3-3-3-3-3-3-3-3-|-5-5-5-5-5-5-5-5-|-5-5-5-5-5-5-5-5\--|
|-----------------|-----------------|-----------------|-------------------|


  E E E E E E E E   E E E E E E E E   E E S E. E E S E.   E E S E. Q  Q
|-----------------|-----------------|-------------------|-----------------|
|-----------------|-----------------|-------------------|-----------------|
|-1-1-1-1-1-1-1-1-|-3-3-3-3-3-3-3-3-|-5-5-5-5--5-5-5-5--|-----------------|
|-----------------|-----------------|-------------------|-7-7-7-7--7--7---|


  E E E E E E E E   E E E E E E E E   E E E E E E E E   E E E E Q  E E
|-----------------|-----------------|-----------------|-----------------||
|-----------------|-----------------|-----------------|-----------------||
|-----------------|-----------------|-----------------|-----------------||
|-8-8-8-8-8-8-8-8-|-8-8-8-8-8-8-8-8-|-5-5-5-5-5-5-5-5-|-5-5-5-5-5--5-5--||


 Breakdown
  W          +W           +W           +W
|----------|------------|------------|--------|
|----------|------------|------------|--------|
|-5--------|-(5)--------|-(5)--------|-(5)----|
|----------|------------|------------|--------|


  +W           +W           +W           +W
|------------|------------|------------|--------|
|------------|------------|------------|--------|
|-(5)--------|-(5)--------|-(5)--------|-(5)----|
|------------|------------|------------|--------|


  W          +W           W          +W
|----------|------------|----------|--------|
|----------|------------|----------|--------|
|----------|------------|----------|--------|
|-0--------|-(0)--------|-8--------|-(8)----|


                                                       D.S.S. al Dbl. Coda
   W           +W           S S S S S S E +Q   S S S S   S S E +Q   E E E E
|-----------|-------------|----------------------------|----------------------||
|-----------|-------------|----------------------------|----------------------||
|-----------|-------------|----------------------------|----------------------||
|-10--------|-(10)--------|-8-8-8-8-8-8-8-(8)--5-5-5-5-|-5-5-5-(5)--5-5-5-0---||


  &&
  S S S S S S E +E  E S S S S   S S E +Q   H
|-----------------------------|-----------------*|
|-----------------------------|-----------------*|
|-----------------------------|-----------------*|
|-8-8-8-8-8-8-8-(8)-8-5-5-5-5-|-5-5-5-(5)-------*|


Duration Legend
---------------
W - whole; H - half; Q - quarter; E - 8th; S - 16th; T - 32nd; X - 64th; a - acciaccatura
+ - note tied to previous; . - note dotted; .. - note double dotted
Uncapitalized letters represent notes that are staccato (1/2 duration)
Irregular groupings are notated above the duration line
Duration letters will always appear directly above the note/fret number it represents the
duration for.  Duration letters with no fret number below them represent rests.  Multi-
bar rests are notated in the form Wxn, where n is the number of bars to rest for.  Low
melody durations appear below the staff

Tablature Legend
----------------
 h   - hammer-on
 p   - pull-off
 b   - bend
 pb  - pre-bend
 r   - bend release (if no number after the r, then release immediately)
 /\  - slide into or out of (from/to "nowhere")
 s   - legato slide
 S   - shift slide
  - natural harmonic
[n]  - artificial harmonic
n(n) - tapped harmonic
 ~   - vibrato
 tr  - trill
 T   - tap
 TP  - trem. picking
 PM  - palm muting
\n/  - tremolo bar dip; n = amount to dip
 \n  - tremolo bar down
 n/  - tremolo bar up
/n\  - tremolo bar inverted dip
 =   - hold bend; also acts as connecting device for hammers/pulls
 <>  - volume swell (louder/softer)
 x   - on rhythm slash represents muted slash
 o   - on rhythm slash represents single note slash

Misc Legend
-----------
 |  - bar
||  - double bar
||o - repeat start
o|| - repeat end
*|  - double bar (ending)
 :  - bar (freetime)
 $  - Segno
 &  - Coda
Tempo markers -  = BPM(8/16=s8/s16), where s8 = swing 8ths, s16 = swing 16ths

            
            
Suggest correction
Creating personal tab
Creating personal tab
You can edit any tab online and save it as your Personal.

You can edit, replace or remove any tab part or add personal notes – all changes will be seen only by you.

Personal tabs can be accessed anytime from any device, even offline.
Learn more »
Give kudos to tab author, rate the tab!
1 2 3 4 5
comments
print report bad tab
2 comments total.
0 reply
frankibo 1,416 Oct 12, 2008 09:32 AM

once again, stolen from mt tab

0 reply
dandyhandy17 2,125 Oct 12, 2008 03:16 PM

Unfortuneatly, it was my brother who was obsessed with contrubution points

guest
You may want to rate the tab now too:
select rating
Wanna post a correction for this tab? Suggest correction