Oops, an error
Loading. Please wait.

Theft tab

version 5
version 5

Whole song

Interactive

by Atreyu
693 views 1 this week
1 commentread comment
1 2 3 4 5
x 3
add to favorites
×
Save as Personal and add changes to this tab that will be seen only by you. Learn more ›
×
You can save this tab as Personal to edit and correct it or add notes. All changes will be seen only by you. Learn more »
launch autoscroll
font size
0
reset
how to read this tab
guitar tuner
edit
Autoscroll
slow
fast
+/-
esc
set tempo
stop
Artist: Atreyu
Song: The Theft
CD: A Deathgrip On Yesterday(2006)
Tabbed By: fret13@columbus.rr.com
Tuning: Dropped C
(d A F C G C)

This is as accurate as it gets unless you
come upon the official tab book. I dont like
those long tabs, even though they are fairly, 
accurate, they take too long to tab out and
most people like something short and sweet
so they dont spend the night in front of their
printer for the tab. This is a bit out of the
ordinary for an Atreyu song but who cares,
Its freakin awesome.

==================================================================
GUITAR 1
|--|
|--|
|--|
|--|
|--|
|--|

Intro - start with volume at 0 - with 0 tone
|-------------------------------------------|
|---7-7---7-7---7-7---7-7---7-7---7-7---7-7-|
|-7-----7-----7-----7-----7-----7-----7-----|
|-0-----0-----0-----0-----0-----0-----0-----|
|-------------------------------------------|
|-------------------------------------------|

|-------------------------|
|---7-7---7-7---7-7---7-7-|
|-6-----6-----6-----6-----|
|-0-----0-----0-----0-----|
|-------------------------|
|-------------------------|

Chorus
|-------------------------------|x2
|-------------------------------|
|-7-7-7-7-7/9/11-11-11-11-11-11-|
|-x-x-x-x-x-x--x--x--x--x--x--x-|
|-5-5-5-5-5/7/-9--9--9--9--9--9-|
|-------------------------------|

|-------------------------------|x2
|-------------------------------|
|-6-6-6-6-6/9/11-11-11-11-11-11-|
|-x-x-x-x-x-x--x--x--x--x--x--x-|
|-4-4-4-4-4/7/-9--9--9--9--9--9-|
|-------------------------------|

|-------------------------------|x2
|-------------------------------|
|-7-7-7-7-7/9/11-11-11-11-11-11-|
|-x-x-x-x-x-x--x--x--x--x--x--x-|
|-5-5-5-5-5/7/-9--9--9--9--9--9-|
|-------------------------------|

|-------------------------------|x2
|-------------------------------|
|-10-10-10-10-10-10\7-7-7-7-7-7-|
|--x--x--x--x--x--x-x-x-x-x-x-x-|
|--8--8--8--8--8--8\5-5-5-5-5-5-|
|-------------------------------|

Verse
|-----5-----5-----5-----5-----5-----5-----5-----5-|
|---7-----7-----7-----7-----7-----7-----7-----7---|
|-7-----7-----7-----7-----6-----6-----6-----6-----|
|-------------------------------------------------|
|-------------------------------------------------|
|-------------------------------------------------|

|-----3-----3-----6-----6-|
|---3-----3-----8-----8---|
|-4-----4-----7-----7-----|
|-------------------------|
|-------------------------|
|-------------------------|

|-----5-----5-----5-----5-----5-----5-----5-----5-|
|---7-----7-----7-----7-----7-----7-----7-----7---|
|-7-----7-----7-----7-----6-----6-----6-----6-----|
|-------------------------------------------------|
|-------------------------------------------------|
|-------------------------------------------------|

|-----3-----3-----6-----6-|
|---3-----3-----8-----8---|
|-4-----4-----7-----7-----|
|-------------------------|
|-------------------------|
|-------------------------|

Chorus - x2
|-------------------------------|x2
|-------------------------------|
|-7-7-7-7-7/9/11-11-11-11-11-11-|
|-x-x-x-x-x-x--x--x--x--x--x--x-|
|-5-5-5-5-5/7/-9--9--9--9--9--9-|
|-------------------------------|

|-------------------------------|x2
|-------------------------------|
|-6-6-6-6-6/9/11-11-11-11-11-11-|
|-x-x-x-x-x-x--x--x--x--x--x--x-|
|-4-4-4-4-4/7/-9--9--9--9--9--9-|
|-------------------------------|

|-------------------------------|x2
|-------------------------------|
|-7-7-7-7-7/9/11-11-11-11-11-11-|
|-x-x-x-x-x-x--x--x--x--x--x--x-|
|-5-5-5-5-5/7/-9--9--9--9--9--9-|
|-------------------------------|

|-------------------------------|x2
|-------------------------------|
|-10-10-10-10-10-10\7-7-7-7-7-7-|
|--x--x--x--x--x--x-x-x-x-x-x-x-|
|--8--8--8--8--8--8\5-5-5-5-5-5-|
|-------------------------------|

verse 2 - x2
|-------------------------------------------------|
|-------------------------------------------------|
|-------------------------------------------------|
|-----4p0-7p4-----4p0-7p4-----4p0-7p4-----4p0-7p4-|
|-0-0---------0-0---------0-0---------0-0---------|
|-0-0---------0-0---------0-0---------0-0---------|
  . .         . .         . .         . .

|-------------------------------------------------|
|-------------------------------------------------|
|-------------------------------------------------|
|-----4p0-7p4-----4p0-7p4-----4p0-7p4-----4p0-7p4-|
|-------------------------------------------------|
|-4-4---------4-4---------4-4---------4-4---------|
  . .         . .         . .         . .

|--------------------------------------------------|
|--------------------------------------------------|
|--------------------------------------------------|
|-2-2-2-5p2-2-2-5p2--5-8-5---8-7-5-7-5-4h5p4h7p5p4-|
|-2-2-------.--------------------------------------|
|--------------------------------------------------|
  . .

Interlude
|-----------------------------------------------------------------|
|-----------------------------------------------------------------|
|-----------------------------------------------------------------|
|-5-5-5-5-5-5-5-5-5-5-5-5-5-5-5-5-8-8-8-8-8-8-8-8-8-8-8-8-8-8-8-8-|
|-5-5-5-5-5-5-5-5-5-5-5-5-5-5-5-5-8-8-8-8-8-8-8-8-8-8-8-8-8-8-8-8-|
|-5-5-5-5-5-5-5-5-5-5-5-5-5-5-5-5-8-8-8-8-8-8-8-8-8-8-8-8-8-8-8-8-|

|-----------------------------------------------------------------|
|-----------------------------------------------------------------|
|-----------------------------------------------------------------|
|-0-0-0-0-0-0-0-0-0-0-0-0-0-0-0-0-4-4-4-4-4-4-4-4-4-4-4-4-4-4-4-4-|
|-0-0-0-0-0-0-0-0-0-0-0-0-0-0-0-0-4-4-4-4-4-4-4-4-4-4-4-4-4-4-4-4-|
|-0-0-0-0-0-0-0-0-0-0-0-0-0-0-0-0-4-4-4-4-4-4-4-4-4-4-4-4-4-4-4-4-|

|-----------------------------------------------------------------|
|-----------------------------------------------------------------|
|-----------------------------------------------------------------|
|-5-5-5-5-5-5-5-5-5-5-5-5-5-5-5-5-8-8-8-8-8-8-8-8-8-8-8-8-8-8-8-8-|
|-5-5-5-5-5-5-5-5-5-5-5-5-5-5-5-5-8-8-8-8-8-8-8-8-8-8-8-8-8-8-8-8-|
|-5-5-5-5-5-5-5-5-5-5-5-5-5-5-5-5-8-8-8-8-8-8-8-8-8-8-8-8-8-8-8-8-|

|-----------------------------------------------------------------|
|-----------------------------------------------------------------|
|-----------------------------------------------------------------|
|-0-0-0-0-0-0-0-0-0-0-0-0-0-0-0-0-4-4-4-4-4-4-4-4-4-4-4-4-4-4-4-4-|
|-0-0-0-0-0-0-0-0-0-0-0-0-0-0-0-0-4-4-4-4-4-4-4-4-4-4-4-4-4-4-4-4-|
|-0-0-0-0-0-0-0-0-0-0-0-0-0-0-0-0-4-4-4-4-4-4-4-4-4-4-4-4-4-4-4-4-|

|-15-15-15--15--15--17--15--18-18-18-18-18-18-18-18-18\/18-20-|
|----------------------------x--x--x--x--x--x--x--x--x---x--x-|
|---------------------------15-15-15-15-15-15-15-15-15\/15-17-|
|-------------------------------------------------------------|
|-------------------------------------------------------------|
|-------------------------------------------------------------|

|-17-17-17-17-17-17-14-14-14-14-14-14-----------------------------|
|--x--x--x--x--x--x--x--x--x--x--x--x-14-14-14-14-14-14--14-15-17-|
|-14-14-14-14-14-14-11-11-11-11-11-11--x--x--x--x--x--x---x--x--x-|
|-------------------------------------11-11-11-11-11-11--11-12-14-|
|-----------------------------------------------------------------|
|-----------------------------------------------------------------|

|-15-15-15-15-15-15-19-18-12----------|
|--x--x--x--x--x--x--x--x--x----------|
|-12-12-12-12-12-12-16-15--9-15-14-12-|
|-------------------------------------|
|-------------------------------------|
|-------------------------------------|

Chorus - x2
|-------------------------------|x2
|-------------------------------|
|-7-7-7-7-7/9/11-11-11-11-11-11-|
|-x-x-x-x-x-x--x--x--x--x--x--x-|
|-5-5-5-5-5/7/-9--9--9--9--9--9-|
|-------------------------------|

|-------------------------------|x2
|-------------------------------|
|-6-6-6-6-6/9/11-11-11-11-11-11-|
|-x-x-x-x-x-x--x--x--x--x--x--x-|
|-4-4-4-4-4/7/-9--9--9--9--9--9-|
|-------------------------------|

|-------------------------------|x2
|-------------------------------|
|-7-7-7-7-7/9/11-11-11-11-11-11-|
|-x-x-x-x-x-x--x--x--x--x--x--x-|
|-5-5-5-5-5/7/-9--9--9--9--9--9-|
|-------------------------------|

|-------------------------------|x2
|-------------------------------|
|-10-10-10-10-10-10\7-7-7-7-7-7-|
|--x--x--x--x--x--x-x-x-x-x-x-x-|
|--8--8--8--8--8--8\5-5-5-5-5-5-|
|-------------------------------|
=========================================================================
GUITAR 2

Intro - doesnt play

Chorus
|-------------------------------------------------------------------------|
|-------------------------------------------------------------------------|
|-------------------------------------------------------------------------|
|-0-0-0-0-0-0-0-0-0-0-0-0-4-4-4-4-4-4-4-4-4-4-4-4-9-9-9-9-9-9-9-9-9-9-9-9-|
|-0-0-0-0-0-0-0-0-0-0-0-0-4-4-4-4-4-4-4-4-4-4-4-4-9-9-9-9-9-9-9-9-9-9-9-9-|
|-0-0-0-0-0-0-0-0-0-0-0-0-4-4-4-4-4-4-4-4-4-4-4-4-9-9-9-9-9-9-9-9-9-9-9-9-|

|-------------------------|
|-------------------------|
|-------------------------|
|-5-5-5-5-5-5-8-8-8-8-8-8-|
|-5-5-5-5-5-5-8-8-8-8-8-8-|
|-5-5-5-5-5-5-8-8-8-8-8-8-|

Verse - doesnt play until 'He Exhales' - also
harmonize with guitar 1.
|------------------------------------------------------------------|
|------------------------------------------------------------------|
|-------2--------2--------2--------2-------2------2-------2------2-|
|---4--------4--------4--------4-------4-------4-------4-------4---|
|-5--------5--------5--------5-------4-------4-------4-------4-----|
|-----0--------0--------0--------0-------0-------0-------0-------0-|

|---------------------------------|
|---------------------------------|
|-------0-------0-------3-------3-|
|---0-------0-------5-------5-----|
|-2-------2-------5-------5-------|
|-----0-------0-------0-------0---|

Chorus - x2
|-------------------------------------------------------------------------|
|-------------------------------------------------------------------------|
|-------------------------------------------------------------------------|
|-0-0-0-0-0-0-0-0-0-0-0-0-4-4-4-4-4-4-4-4-4-4-4-4-9-9-9-9-9-9-9-9-9-9-9-9-|
|-0-0-0-0-0-0-0-0-0-0-0-0-4-4-4-4-4-4-4-4-4-4-4-4-9-9-9-9-9-9-9-9-9-9-9-9-|
|-0-0-0-0-0-0-0-0-0-0-0-0-4-4-4-4-4-4-4-4-4-4-4-4-9-9-9-9-9-9-9-9-9-9-9-9-|

|-------------------------|
|-------------------------|
|-------------------------|
|-5-5-5-5-5-5-8-8-8-8-8-8-|
|-5-5-5-5-5-5-8-8-8-8-8-8-|
|-5-5-5-5-5-5-8-8-8-8-8-8-|

Verse 2 - x2
|-----------------------------------------------------------------|
|-----------------------------------------------------------------|
|-----------------------------------------------------------------|
|-----------------------------------------------------------------|
|-0-0-0-0-0-0-0-0-0-0-0-0-0-0-0-0-4-4-4-4-4-4-4-4-4-4-4-4-4-4-4-4-|
|-0-0-0-0-0-0-0-0-0-0-0-0-0-0-0-0-4-4-4-4-4-4-4-4-4-4-4-4-4-4-4-4-|
  . . . . . . . . . . . . . . . . . . . . . . . . . . . . . . . . 

|-----------------------------------------------------------------|
|-----------------------------------------------------------------|
|-----------------------------------------------------------------|
|-----------------------------------------------------------------|
|-9-9-9-9-9-9-9-9-9-9-9-9-9-9-9-9-5-5-5-5-5-5-5-5-8-8-8-8-8-8-8-8-|
|-9-9-9-9-9-9-9-9-9-9-9-9-9-9-9-9-5-5-5-5-5-5-5-5-8-8-8-8-8-8-8-8-|
  . . . . . . . . . . . . . . . . . . . . . . . . . . . . . . . . 

Interlude
|-----------------------------------------------------------------|
|-----------------------------------------------------------------|
|-----------------------------------------------------------------|
|-5-5-5-5-5-5-5-5-5-5-5-5-5-5-5-5-8-8-8-8-8-8-8-8-8-8-8-8-8-8-8-8-|
|-5-5-5-5-5-5-5-5-5-5-5-5-5-5-5-5-8-8-8-8-8-8-8-8-8-8-8-8-8-8-8-8-|
|-5-5-5-5-5-5-5-5-5-5-5-5-5-5-5-5-8-8-8-8-8-8-8-8-8-8-8-8-8-8-8-8-|

|-----------------------------------------------------------------|
|-----------------------------------------------------------------|
|-----------------------------------------------------------------|
|-0-0-0-0-0-0-0-0-0-0-0-0-0-0-0-0-4-4-4-4-4-4-4-4-4-4-4-4-4-4-4-4-|
|-0-0-0-0-0-0-0-0-0-0-0-0-0-0-0-0-4-4-4-4-4-4-4-4-4-4-4-4-4-4-4-4-|
|-0-0-0-0-0-0-0-0-0-0-0-0-0-0-0-0-4-4-4-4-4-4-4-4-4-4-4-4-4-4-4-4-|

|-----------------------------------------------------------------|
|-----------------------------------------------------------------|
|-----------------------------------------------------------------|
|-5-5-5-5-5-5-5-5-5-5-5-5-5-5-5-5-8-8-8-8-8-8-8-8-8-8-8-8-8-8-8-8-|
|-5-5-5-5-5-5-5-5-5-5-5-5-5-5-5-5-8-8-8-8-8-8-8-8-8-8-8-8-8-8-8-8-|
|-5-5-5-5-5-5-5-5-5-5-5-5-5-5-5-5-8-8-8-8-8-8-8-8-8-8-8-8-8-8-8-8-|

|-----------------------------------------------------------------|
|-----------------------------------------------------------------|
|-----------------------------------------------------------------|
|-0-0-0-0-0-0-0-0-0-0-0-0-0-0-0-0-4-4-4-4-4-4-4-4-4-4-4-4-4-4-4-4-|
|-0-0-0-0-0-0-0-0-0-0-0-0-0-0-0-0-4-4-4-4-4-4-4-4-4-4-4-4-4-4-4-4-|
|-0-0-0-0-0-0-0-0-0-0-0-0-0-0-0-0-4-4-4-4-4-4-4-4-4-4-4-4-4-4-4-4-|

|-----------------------------------------------------------------|
|-----------------------------------------------------------------|
|-----------------------------------------------------------------|
|-5-5-5-5-5-5-5-5-5-5-5-5-5-5-5-5-8-8-8-8-8-8-8-8-8-8-8-8-8-8-8-8-|
|-5-5-5-5-5-5-5-5-5-5-5-5-5-5-5-5-8-8-8-8-8-8-8-8-8-8-8-8-8-8-8-8-|
|-5-5-5-5-5-5-5-5-5-5-5-5-5-5-5-5-8-8-8-8-8-8-8-8-8-8-8-8-8-8-8-8-|

|-----------------------------------------------------------------|
|-----------------------------------------------------------------|
|-----------------------------------------------------------------|
|-0-0-0-0-0-0-0-0-0-0-0-0-0-0-0-0-4-4-4-4-4-4-4-4-4-4-4-4-4-4-4-4-|
|-0-0-0-0-0-0-0-0-0-0-0-0-0-0-0-0-4-4-4-4-4-4-4-4-4-4-4-4-4-4-4-4-|
|-0-0-0-0-0-0-0-0-0-0-0-0-0-0-0-0-4-4-4-4-4-4-4-4-4-4-4-4-4-4-4-4-|

|--------------------------------------|
|--------------------------------------|
|--------------------------------------|
|-5-5-5-5-5-5-5-5-5-5-5-5-5-5-5-5-0-8~-|
|-5-5-5-5-5-5-5-5-5-5-5-5-5-5-5-5-0-8~-|
|-5-5-5-5-5-5-5-5-5-5-5-5-5-5-5-5-0-8~-|

Chorus - x2
|-------------------------------------------------------------------------|
|-------------------------------------------------------------------------|
|-------------------------------------------------------------------------|
|-0-0-0-0-0-0-0-0-0-0-0-0-4-4-4-4-4-4-4-4-4-4-4-4-9-9-9-9-9-9-9-9-9-9-9-9-|
|-0-0-0-0-0-0-0-0-0-0-0-0-4-4-4-4-4-4-4-4-4-4-4-4-9-9-9-9-9-9-9-9-9-9-9-9-|
|-0-0-0-0-0-0-0-0-0-0-0-0-4-4-4-4-4-4-4-4-4-4-4-4-9-9-9-9-9-9-9-9-9-9-9-9-|

|-------------------------|
|-------------------------|
|-------------------------|
|-5-5-5-5-5-5-8-8-8-8-8-8-|
|-5-5-5-5-5-5-8-8-8-8-8-8-|
|-5-5-5-5-5-5-8-8-8-8-8-8-|
==========================================================================
GUITAR 3
There is a third guitar at the beginning 
and the second time through the last chorus.

Intro and second time through last chorus
|-------------------------------------------------------------------------|x4
|-------------------------------------------------------------------------|
|-19-19-19-19-19-19-18-18-18-18-18-18-16-16-16-16-16-16-14-14-14-14-14-14-|
|--x--x--x--x--x--x--x--x--x--x--x--x--x--x--x--x--x--x--x--x--x--x--x--x-|
|-17-17-17-17-17-17-16-16-16-16-16-16-14-14-14-14-14-14-12-12-12-12-12-12-|
|-------------------------------------------------------------------------|

|-------------------------------------------------|
|----------------------------17-17-17-17-17-17-18-|
|-15-15-15-15-15-15-15-15-15--x--x--x--x--x--x--x-|
|--x--x--x--x--x--x--x--x--x-14-14-14-14-14-14-15-|
|-13-13-13-13-13-13-13-13-13----------------------|
|-------------------------------------------------|
============================================================================

Ir its that terrible, comment please cause 
ican fix it. there also may be some changes cause i 
seem to hear something new in the song eveyday.

            
            
Suggest correction
Creating personal tab
Creating personal tab
You can edit any tab online and save it as your Personal.

You can edit, replace or remove any tab part or add personal notes – all changes will be seen only by you.

Personal tabs can be accessed anytime from any device, even offline.
Learn more »
Give kudos to tab author, rate the tab!
1 2 3 4 5
comments
print report bad tab
1 comment total.
0 reply
FranKLynn 20 Apr 03, 2008 03:59 PM

This is a actually a really good tab. You have both guitar parts all the way through (and the extra guitar part, too), the intro, and everything's accurate.

guest
You may want to rate the tab now too:
select rating
Wanna post a correction for this tab? Suggest correction