Oops, an error
Loading. Please wait.

When Two Are One bass

version 1
version 1

Whole song

Interactive

by Atreyu
5,710 views 1 this week
2 commentsread comments
1 2 3 4 5
x 3
add to favorites
×
Save as Personal and add changes to this tab that will be seen only by you. Learn more ›
×
You can save this tab as Personal to edit and correct it or add notes. All changes will be seen only by you. Learn more »
launch autoscroll
font size
0
reset
guitar tuner
edit
Autoscroll
slow
fast
+/-
esc
set tempo
stop
Author
Difficulty
Band: Atreyu
Song: When Two Become One
Album: Lead Sails Paper Anchor
Tabbed by: choke383
hole step down: FCGC


0:12
F|--------------------------------------------------|
C|-----------4-4h7-6-4------------------------------|
G|--5-5h6-------------------3-5-7--1----------------|
C|5--------------------5-------------5-----8--7--5--|


0:25
F|----------------------------------------------------------------------------|
C|----------------------------------------------------------------------------|
G|3--3-3333-3-3-3333-3--3-3333-3-3-3333---------------------------------------|
C|--------------------------------------5--5-5555-5-5-5555-5--5-5555-5-5-5555-|

F|-----------------------------------------------------------------------------|
C|-----------------------------------------------------------------------------|
G|-----------------------------------------------------------------------------|
D|8--8-8888-8-8-8888-8--8-8888-8-8-8888-3--3-3333-3-3-3333-3--3-3333-3-3-3333--|x3


1:01
F|------------------------------------------------------------------|
C|------------------------------------------------------------------|
G|3--3-3--3--6--6-6--6-------------5--5-5--5--3--3-3--3--6--6-6--6--|
D|----------------------5--5-5--5-----------------------------------|


1:10
F|--------------------------------------------------------------------------------|
C|--------------------------------------------------------------------------------|
G|----------------------------------------6-6-66----6-6-66----3-3-33----3-3-33333-|
D|5-5-55----5-5-55----8-8-88----8-8-88--------------------------------------------|

F|------------------------------------------------------------------------------------|
C|------------------------------------------------------------------------------------|
G|--------------------------------------5-6-6-66----6-6-66----3-3-33----3-3-3/151515--|
D|5-5-55----5-5-55----8-8-88----8-8-88-5----------------------------------------------|


1:36
F|----------------------------------------------------------------------------|
C|----------------------------------------------------------------------------|
G|3--3-3333-3-3-3333-3--3-3333-3-3-3333---------------------------------------|
C|--------------------------------------5--5-5555-5-5-5555-5--5-5555-5-5-5555-|

F|-----------------------------------------------------------------------------|
C|-----------------------------------------------------------------------------|
G|-----------------------------------------------------------------------------|
D|8--8-8888-8-8-8888-8--8-8888-8-8-8888-3--3-3333-3-3-3333-3--3-3333-3-3-3333--|x2

F|-------------------------------------------------------------------------|
C|-------------------------------------------------------------------------|
G|333333333-3-3-3--333333333-3-3-3-----------------------------------------|
C|-----------------------------------5--5-5555-5-5-5555-5--5-5555-5-5-5555-|

F|-----------------------------------------------------------------------------|
C|-----------------------------------------------------------------------------|
G|-----------------------------------------------------------------------------|
D|8--8-8888-8-8-8888-8--8-8888-8-8-8888-3--3-3333-3-3-3333-3--3-3333-3-3-3333--|


2:12
F|------------------------------------------------------------------|
C|------------------------------------------------------------------|
G|3--3-3--3--6----6--6-------------5----5--5--3----3--3--6----6--6--|
D|--------------8-------5--5-5--5-----7----------5----------8-------|


2:22
F|--------------------------------------------------------------------------------|
C|--------------------------------------------------------------------------------|
G|----------------------------------------6-6-66----6-6-66----3-3-33----3-3-33333-|
D|5-5-55----5-5-55----8-8-88----8-8-88--------------------------------------------|

F|---------------------------------------------------------------------------------|
C|-----5\--------5\--------8\------------------------------------------------------|
G|--------------------------------------5-6-6--6----6-6--6----3-3--3----3-3--3-0-3-|
C|5-5-5-----5-5-5-----8-8-8-----8-8-88-5------8---------8---------5---------5------|

F|-----------------------------|
C|-----------------------------|
G|3-3-33-3-3/15-15-1515-15-15--|
D|-----------------------------|


3:15
F|------------------------------------------------------------------------|
C|--------------------------------------------------------------------8\--|
G|--------------------------------------------------6-6-6-6-6-6-6-6-------|
D|10-10-10-10-10-10-10-10------8-8-8-8-8-8-8-8----------------------------|


F|-------------------------------|
C|-------------------------------|
G|-------------------------------|
D|5-5-5555-5-5555-5-5555-5-5-6---|x5


3:40
F|------------------------------------------------------------------|
C|------------------------------------------------------------------|
G|3----3--3--6----6--6-------------5----5--5--3----3--3--6----6--6--|
D|---5----------8-------5--5-5--5-----7----------5----------8-------|


3:55
F|---------------------------------------------|
C|---------------------------------------(5\)--|
G--5-6-6-66----6-6-66----3-3-33----3-3-33------|
D|5--------------------------------------------|

F|------------------------------------------------------------------------------------|
C|------------------------------------------------------------------------------------|
G|--------------------------------------5-6-6-66----6-6-66----3-3-33----3-3-333-3-333-|
D|5-5-55----5-5-55----8-8-88----8-8-88-5----------------------------------------------|

F|---------------------|
C|---------------------|
G|3-33-333-3-333-3-33--|
D|---------------------|


F|-------------------------------|
C|-------------------------------|
G|-------------------------------|
D|5-5-5555-5-5555-5-5555-5-5-6---|x5



Any comments, questions or jokes send to style444@hotmail.com

            
            
Suggest correction
Creating personal tab
Creating personal tab
You can edit any tab online and save it as your Personal.

You can edit, replace or remove any tab part or add personal notes – all changes will be seen only by you.

Personal tabs can be accessed anytime from any device, even offline.
Learn more »
Give kudos to tab author, rate the tab!
1 2 3 4 5
comments
print report bad tab
2 comments total.
0 reply
bassplayer18A7X 111 Feb 23, 2009 01:43 PM

this was probably a mistake, but after two lines you changed the tuning from CGCF to DGCF.

0 reply
choke383 2,255 Feb 25, 2009 06:19 AM

yep! it is. Sorry if I confused some.

guest
You may want to rate the tab now too:
select rating
Wanna post a correction for this tab? Suggest correction