Oops, an error
Loading. Please wait.

When Two Are One solo tab

version 2
version 2

Solo

Whole song

Interactive

by Atreyu
8,240 views 1 this week
1 commentread comment
1 2 3 4 5
x 4
add to favorites
×
Save as Personal and add changes to this tab that will be seen only by you. Learn more ›
×
You can save this tab as Personal to edit and correct it or add notes. All changes will be seen only by you. Learn more »
launch autoscroll
font size
0
reset
how to read this tab
guitar tuner
edit
Autoscroll
slow
fast
+/-
esc
set tempo
stop
When Two are One – Atreyu

this is the solo at about 1:40 in the song...
questions/comments - hartwig_515@hotmail.com

Key:
/ - slide 
b - bend
r - release
p- pull off

Dropped C

|---/18--17--18----18-17-18b(19)r18-17-18-17-15-------------------13--------|
|--------------------------------------------------15/---15-13-15----15-13--|
|---------------------------------------------------------------------------|
|---------------------------------------------------------------------------|
|---------------------------------------------------------------------------|
|---------------------------------------------------------------------------|

(very fast triplets here)
|---15p13p12--------------------------------------------------|
|------------15p13p12-----------------------------------------|
|---------------------15p13p12-12p11p10-----------------------|
|---------------------------------------12p11p10--------------|
|------------------------------------------------13p12p11-10--|
|-------------------------------------------------------------|

|-------------------------------/18-17-15------------|
|-------------------------------------------18b(21)--|
|------------5--7--8--8--7---------------------------|
|---5--7--8------------------------------------------|
|----------------------------------------------------|
|----------------------------------------------------|

            
            
Suggest correction
Creating personal tab
Creating personal tab
You can edit any tab online and save it as your Personal.

You can edit, replace or remove any tab part or add personal notes – all changes will be seen only by you.

Personal tabs can be accessed anytime from any device, even offline.
Learn more »
comments
print report bad tab
1 comment total.
+1 reply
CrazzyMike 78 Oct 19, 2008 08:54 AM

Good Tab. 5*

guest
You may want to rate the tab now too:
select rating
Wanna post a correction for this tab? Suggest correction