Oops, an error
Loading. Please wait.

Out Of Sorts chords

355 views 3 this week
no commentswrite comment
1 2 3 4 5
x 3
add to favorites
×
Save as Personal and add changes to this tab that will be seen only by you. Learn more ›
×
You can save this tab as Personal to edit and correct it or add notes. All changes will be seen only by you. Learn more »
launch autoscroll
font size
0
reset
transpose
0
reset
simplify chords
display chords
guitar tuner
edit
Autoscroll
slow
fast
+/-
esc
set tempo
stop
Author
Difficulty
Strumming
There is no strumming pattern for this song yet. and get +5 IQ
[Intro] 
e|-----------------0-------------------------------------------------------------4--2--0--0----------------
B|-----------0--2-----2--0----------------------------------------------0--2-----------------2--0----------
G|--0h1---------------------1---------------------------------------------------------------------1--------
D|------------------------------4--2------------2--4--2--4--6--4--6----------------------------------4--2--
A|-------------------------------------4--2--4--0----------------------------------------------------------
E|--0----------------------------------------------------------------------------------0-------------------

e -------------------------------------------4--2--0--0--|
B ----------------------------------0--2-----------------|
G -------------------------------------------------------|
D ---------2--4-----2--4--6--4--6------------------------|
A 4--2--4--0---------------------------------------------|
E -------------------------------------------------------|

[Verse]
E
I'm out of sorts
E
I'm out of sorts
        A                 E
Can't tell me I'm mean no more
E          
I'm in a bind, with pain in my eyes,
        A                 E
Can't tell me I'm mean no more
E
Tell me again don't need me my friend
    A         D               A           E
I'm all broke down now and my day's at an end

E
I've got to run, I've got to run
          A                E
Can't tell me I'm mean no more
E
You looked in my eyes, you looked in my eyes
        A             E
you didn't love me no more
E
see me again, don't need me my friend
    A         D               A           E
I'm all broke down now and my day's at an end

[Bridge]
E
If we don't go home right now,
                   Am                 E
the cops are gonna get us and take us down
                    Am                E               Am Am6  E
I thought you might see the sweet I'd see in this old market town
E
If you don't give me a sign,
                 Am              E
all of them will get up and into line
                    Am                 E             Am Am6   E    
I thought you might see the sweet I'd see in this old market town

[Verse]
E
I've got to run, I've got to run
       A                   E
Can't tell me I'm mean no more
E
You looked in my eyes, you looked in my eyes
    A                 E
you didn't love me no more
 E
see me again, don't need me my friend
    A         D               A            E
I'm all broke down now and my day's at an end.



************************************

| h  Hammer-on
 

************************************

            
            
Suggest correction
Creating personal tab
Creating personal tab
You can edit any tab online and save it as your Personal.

You can edit, replace or remove any tab part or add personal notes – all changes will be seen only by you.

Personal tabs can be accessed anytime from any device, even offline.
Learn more »
Give kudos to tab author, rate the tab!
1 2 3 4 5
comments
print report bad tab
guest
You may want to rate the tab now too:
select rating
Wanna post a correction for this tab? Suggest correction