Oops, an error
Loading. Please wait.
We have an official Stick Stickly tab made by UG professional guitarists. Check out the tab »
×
34,011 views 1 this week
3 commentsread comments
1 2 3 4 5
x 4
add to favorites
×
Save as Personal and add changes to this tab that will be seen only by you. Learn more ›
×
You can save this tab as Personal to edit and correct it or add notes. All changes will be seen only by you. Learn more »
launch autoscroll
font size
0
reset
how to read this tab
guitar tuner
edit
Autoscroll
slow
fast
+/-
esc
set tempo
stop
Author
this is my first tab.
kind of hard to show the timing and everything but you should get it

Drop C# (C# G# C# F# A# D#)

Intro (both guitars)
|------------------------------------------------|
|------------------------------------------------|
|------------------------------------------------|
|------------------------------------------------|    X8
|--0-0-0--0-0-0------0-0------0-0--0-0-0--0-0-0--|
|--0-0-0--0-0-0------0-0------0-0--0-0-0--0-0-0--|

2nd guitar comes in with this (tremolo picking)
|-------------------------------------------------------|
|-------------------------------------------------------|  figure out timing
|-------------------------------------------------------|
|-------------------------------------------------------| X2
|-10\---5---8---7---4-----------4h7p4h7-------5h8p5h8---|
|-----------------------4h7p4h7--------5h8p5h8----------|

Pre-chorus
|---------------------------------------------|
|---------------------------------------------|
|------------------------12-12-12-12//14--14--|
|--0----------------------x--x--x--x//-x---x--|
|--0---------------------10-10-10-10//12--12--|
|--0------------------------------------------|

Chorus (2nd guitar does the power chords)
|-you---------said--------that-this-------go-on-live---------------------|
|------------------------------------------------------------------------|
|-10----------12----7-----10--------------9------7-----------------------|x2
|-x-----------x-----x-----x---------------x------x-----------------------|
|-8-----------10----5-----8---------------7------5-----------------------|
|------------------------------------------------------------------------|

Pre-Verse                  
|-----------------------|  
|--6-------6-------6----|  WOOOOO
|--9-------9-------9b10-|  
|-----------------------|  
|-----0--0----0--0------|  
|-----0--0----0--0------|  

Verse
|----------------------------------------------|
|--6-------6-------6-6-6-6--6-------6------6---|
|--9-------9-------9-9-9-9--9-------9------9b10|
|----------------------------------------------|X2
|-----0--0----0--0-------------0--0---0--0-----|
|-----0--0----0--0-------------0--0---0--0-----|


|------------------|
|------------------|       figure out timing
|------------------|
|-10--------12-----|
|-8---------10-----|
|-8---------10-----|

Breakdown
|--------------------------------------|
|--------------------------------------|
|--------------------------------------|
|--------------------------------------|
|0-0-0--0--0-0-0--0----0-0-0-0-0-0-0-0-|
|1-1-1--1--1-1-1--1----1-1-1-1-1-1-1-1-|

|-----------------------------------|
|-----------------------------------|
|-----------------------------------|
|-----------------------------------|
|0-0-0--0--0-0-0--0--0--0-0-0-0--3*-|
|1-1-1--1--1-1-1--1--1--1-1-1-1-----|

|------------------------------------------------------------|
|------------------------------------------------------------|
|------------------------------------------------------------|
|------------------------------------------------------------| 
|-0-0-0---0-0-0---0-0-0---0-0-0---0-0--8h12p8h12p8h12p8h12---|
|-0-0-0---0-0-0---0-0-0---0-0-0---0-0------------------------|

|------------------------------------------------------------|
|------------------------------------------------------------|
|------------------------------------------------------------|
|------------------------------------------------------------| 
|-0-0-0---0-0-0---0-0-0---0-0-0---0-0--8\--------------------|
|-0-0-0---0-0-0---0-0-0---0-0-0---0-0--8\--------------------|

|--------------------------------------|
|--------------------------------------|
|--------------------------------------|
|--------------------------------------|
|0-0-0--0--0-0-0--0----0-0-0-0-0-0-0-0-|
|1-1-1--1--1-1-1--1----1-1-1-1-1-1-1-1-|


|-----------------------------------|
|-----------------------------------|
|-----------------------------------|
|-----------------------------------|
|0-0-0--0--0-0-0--0--0--0-0-0-0--3*-|
|1-1-1--1--1-1-1--1--1--1-1-1-1-----|

|------------------------------------------------------------|
|------------------------------------------------------------|
|------------------------------------------------------------|
|------------------------------------------------------------| 
|-0-0-0---0-0-0---0-0-0---0-0-0---0-0--8h12p8h12p8h12p8h12---|
|-0-0-0---0-0-0---0-0-0---0-0-0---0-0------------------------|

|------------------------------------------------------------|
|------------------------------------------------------------|
|------------------------------------------------------------|
|------------------------------------------------------------| 
|-0-0-0---0-0-0---0-0-0---0-0-0---0-0--8\--------------------|
|-0-0-0---0-0-0---0-0-0---0-0-0---0-0--8\--------------------|

Pre-Chorus
|-i------for-----you------------|
|-------------------------------|
|-------------------------------|
|-8------10------0------10------| X2
|-8--x12-10--x4--0--x8--10--x8--|
|-8------10------0------10------|

(Chorus)

Breakdown 2
|--------------------------------------|
|--------------------------------------|
|--------------------------------------|
|--------------------------------------|  x3
|-0-0-0--0-0-0--0-0-0-0--0-0-0-0---0---|
|-0-0-0--0-0-0--0-0-0-0--0-0-0-0---0---|

(2nd guitar) figure out timing
|----------------------------------------------------|
|----------------------------------------------------|
|----------------------------------------------------|
|-8h12p8h12--8h12p8h12--8h12p8h12--4h7p4h7-----------| X2
|-----------------------------------------4h7p4h7----|

Dance party
|------------------------------------------------------|
|------------------------------------------------------|
|------------------------------------------------------|
|------------------------------------------------------|
|-0--0-0-0--0--0--0-0-0--0--8--8-8-8--8--8--8-8-8--8---|
|-0--0-0-0--0--0--0-0-0--0--8--8-8-8--8--8--8-8-8--8---|

|----------------------------------------------------------------|
|----------------------------------------------------------------|
|----------------------------------------------------------------|
|----------------------------------------------------------------|  X2
|-3--3-3-3--3--3--3-3-3--3--10--10-10-10--10--10--10-10-10--10---|
|-3--3-3-3--3--3--3-3-3--3--10--10-10-10--10--10--10-10-10--10---|


|-----------------------------------------------------------|
|-------------------------------------------------4~--------|
|-------------------------------------------------7~--------|
|-pick slide--------------------------------------0---------|
|-x----------0-0-0--0--0-0-0--0--0-0-0-0-0-0-0-0--0---------|
|-x----------1-1-1--1--1-1-1--1--1-1-1-1-1-1-1-1--0---------|

            
            
Suggest correction
Creating personal tab
Creating personal tab
You can edit any tab online and save it as your Personal.

You can edit, replace or remove any tab part or add personal notes – all changes will be seen only by you.

Personal tabs can be accessed anytime from any device, even offline.
Learn more »
comments
print report bad tab
3 comments total.
0 reply
squishhh 50 Jun 26, 2009 06:42 AM

only thing is on
|------------------------------------------------------------|
|------------------------------------------------------------|
|------------------------------------------------------------|
|------------------------------------------------------------|
|-0-0-0---0-0-0---0-0-0---0-0-0---0-0--8\--------------------|
|-0-0-0---0-0-0---0-0-0---0-0-0---0-0--8\--------------------|

there's no slide the second time

0 reply
squishhh 50 Jun 26, 2009 06:43 AM

|-------------------------------------------------------|
|-------------------------------------------------------|
|-------------------------------------------------------|
|-------------------------------------------------------| X2
|-10\---5---8---7---4-----------4h7p4h7-------5h8p5h8---|
|-----------------------4h7p4h7--------5h8p5h8----------|
and that 10 isn't there the second time

0 reply
Darksinister10 30 Dec 26, 2010 08:12 AM

this is better
|-----------------------------------------------------------|
|-------------------------------------------------6~--------|
|-------------------------------------------------9~--------|
|-pick slide--------------------------------------0---------|
|-x----------0-0-0--0--0-0-0--0--0-0-0-0-0-0-0-0--0---------|
|-x----------1-1-1--1--1-1-1--1--1-1-1-1-1-1-1-1--0---------|

instead of this cause this is wrong

|-----------------------------------------------------------|
|-------------------------------------------------4~--------|
|-------------------------------------------------7~--------|
|-pick slide--------------------------------------0---------|
|-x----------0-0-0--0--0-0-0--0--0-0-0-0-0-0-0-0--0---------|
|-x----------1-1-1--1--1-1-1--1--1-1-1-1-1-1-1-1--0---------|

guest
You may want to rate the tab now too:
select rating
Wanna post a correction for this tab? Suggest correction