Oops, an error
Loading. Please wait.
We have an official Stick Stickly tab made by UG professional guitarists. Check out the tab »
×
4,940 views 1 this week
no commentswrite comment
1 2 3 4 5
1 last vote to show rating
add to favorites
×
Save as Personal and add changes to this tab that will be seen only by you. Learn more ›
×
You can save this tab as Personal to edit and correct it or add notes. All changes will be seen only by you. Learn more »
launch autoscroll
font size
0
reset
how to read this tab
guitar tuner
edit
Autoscroll
slow
fast
+/-
esc
set tempo
stop
#----------------------------------PLEASE NOTE---------------------------------#
#This file is the author's own work and represents their interpretation of the #
#song. You may only use this file for private study, scholarship, or research. #
#------------------------------------------------------------------------------##

                                  STICK STICKLY
                          As recorded by Attack Attack!
                   (From the 2009 Album SOMEDAY CAME SUDDENLY)

Words and Music by Attack Attack!
Arranged by Attack Attack!
Transcribed by Felkara

Gtr I (C# G# C# F# A# D#) - 'Guitar 1'
Gtr II (C# G# C# F# A# D#) - 'Guitar 2'
Gtr III (C# G# C# F# A# D#) - 'Synth 1'
Gtr IV (C# G# C# F# A# D#) - 'Synth 2'
Gtr V (C# G# C# F# A# D#) - 'Synth 3'

 Intro
  Q=139
 4/4
  Gtr I
  W          +W
|----------|--------|
|----------|--------|
|----------|--------|
|-0--------|-(0)----|
|-0--------|-(0)----|
|-0--------|-(0)----|


  PM---------------------------------------------
  S S e S S e E e S S E   E e S S E S S e S S e
|-----------------------|-----------------------|
|-----------------------|-----------------------|
|-----------------------|-----------------------|
|-----------------------|-----------------------|
|-0-0-0-0-0-0---0-0-0---|---0-0-0---0-0-0-0-0-0-|
|-0-0-0-0-0-0---0-0-0---|---0-0-0---0-0-0-0-0-0-|
|
| Gtr II
| PM---------------------------------------------
| S S e S S e E e S S E   E e S S E S S e S S e
|-----------------------|-----------------------|
|-----------------------|-----------------------|
|-----------------------|-----------------------|
|-----------------------|-----------------------|
|-0-0-0-0-0-0---0-0-0---|---0-0-0---0-0-0-0-0-0-|
|-0-0-0-0-0-0---0-0-0---|---0-0-0---0-0-0-0-0-0-|


 ---------------------------------------------|
  S S e S S e E e S S E   E e S S E S S e S S e
|-----------------------|-----------------------|
|-----------------------|-----------------------|
|-----------------------|-----------------------|
|-----------------------|-----------------------|
|-0-0-0-0-0-0---0-0-0---|---0-0-0---0-0-0-0-0-0-|
|-0-0-0-0-0-0---0-0-0---|---0-0-0---0-0-0-0-0-0-|
|
|---------------------------------------------|
| S S e S S e E e S S E   E e S S E S S e S S e
|-----------------------|-----------------------|
|-----------------------|-----------------------|
|-----------------------|-----------------------|
|-----------------------|-----------------------|
|-0-0-0-0-0-0---0-0-0---|---0-0-0---0-0-0-0-0-0-|
|-0-0-0-0-0-0---0-0-0---|---0-0-0---0-0-0-0-0-0-|


  PM---------------------------------------------
  S S e S S e E e S S E   E e S S E S S e S S e
|-----------------------|-----------------------|
|-----------------------|-----------------------|
|-----------------------|-----------------------|
|-----------------------|-----------------------|
|-0-0-0-0-0-0---0-0-0---|---0-0-0---0-0-0-0-0-0-|
|-0-0-0-0-0-0---0-0-0---|---0-0-0---0-0-0-0-0-0-|
|
| PM---------------------------------------------
| S S e S S e E e S S E   E e S S E S S e S S e
|-----------------------|-----------------------|
|-----------------------|-----------------------|
|-----------------------|-----------------------|
|-----------------------|-----------------------|
|-0-0-0-0-0-0---0-0-0---|---0-0-0---0-0-0-0-0-0-|
|-0-0-0-0-0-0---0-0-0---|---0-0-0---0-0-0-0-0-0-|


 ---------------------------------------|
  S S e S S e E e S S E   E e S S E E   E   Q
|-----------------------|--------------------------|
|-----------------------|--------------------------|
|-----------------------|--------------------------|
|-----------------------|--------------------------|
|-0-0-0-0-0-0---0-0-0---|---0-0-0------------------|
|-0-0-0-0-0-0---0-0-0---|---0-0-0---0---0-/12\-----|
|
|------------------------------------------------|
| S S e S S e E e S S E   E e S S E S S e   S  S e
|-----------------------|--------------------------|
|-----------------------|--------------------------|
|-----------------------|--------------------------|
|-----------------------|--------------------------|
|-0-0-0-0-0-0---0-0-0---|---0-0-0---0-0-0---0--0-0-|
|-0-0-0-0-0-0---0-0-0---|---0-0-0---0-0-0---0--0-0-|


  Gtr III
  W                       +W
|-----------------------|-----------------------------|
|-----------------------|-----------------------------|
|-----------------------|-----------------------------|
|-3---------------------|-(3)-------------------------|
|-5---------------------|-(5)-------------------------|
|-----------------------|-----------------------------|
|
| Gtr I
| TP                       TP          TP   TP TP   TP
| W                        H           E    E  E    E
|-----------------------|-----------------------------|
|-----------------------|-----------------------------|
|-----------------------|-----------------------------|
|-----------------------|-----------------------------|
|-8---------------------|--8----------10---12-10---12-|
|-----------------------|-----------------------------|
|
| Gtr II
| PM---------------------------------------------------
| S S e S S e E e S S E    E  e S S E  S S  e  S S  e
|-----------------------|-----------------------------|
|-----------------------|-----------------------------|
|-----------------------|-----------------------------|
|-----------------------|-----------------------------|
|-0-0-0-0-0-0---0-0-0---|-----0-0-0----0-0--0--0-0--0-|
|-0-0-0-0-0-0---0-0-0---|-----0-0-0----0-0--0--0-0--0-|


  W                       +W
|-----------------------|-------------------------|
|-----------------------|-------------------------|
|-----------------------|-------------------------|
|-2---------------------|-(2)---------------------|
|-4---------------------|-(4)---------------------|
|-----------------------|-------------------------|
|
| TP                       TP   TP    TP    TP
| W                        Q    Q     Q     Q
|-----------------------|-------------------------|
|-----------------------|-------------------------|
|-----------------------|-------------------------|
|-----------------------|-------------------7-----|
|-7---------------------|-------7-----------------|
|-----------------------|--5----------8-----------|
|
|-----------------------------------------------|
| S S e S S e E e S S E    E  e S S E S S e S S e
|-----------------------|-------------------------|
|-----------------------|-------------------------|
|-----------------------|-------------------------|
|-----------------------|-------------------------|
|-0-0-0-0-0-0---0-0-0---|-----0-0-0---0-0-0-0-0-0-|
|-0-0-0-0-0-0---0-0-0---|-----0-0-0---0-0-0-0-0-0-|


  W                       +W
|-----------------------|-----------------------------|
|-----------------------|-----------------------------|
|-----------------------|-----------------------------|
|-3---------------------|-(3)-------------------------|
|-5---------------------|-(5)-------------------------|
|-----------------------|-----------------------------|
|
| TP                       TP          TP   TP TP   TP
| W                        H           E    E  E    E
|-----------------------|-----------------------------|
|-----------------------|-----------------------------|
|-----------------------|-----------------------------|
|-----------------------|-----------------------------|
|-8---------------------|--8----------10---12-10---12-|
|-----------------------|-----------------------------|
|
| PM---------------------------------------------------
| S S e S S e E e S S E    E  e S S E  S S  e  S S  e
|-----------------------|-----------------------------|
|-----------------------|-----------------------------|
|-----------------------|-----------------------------|
|-----------------------|-----------------------------|
|-0-0-0-0-0-0---0-0-0---|-----0-0-0----0-0--0--0-0--0-|
|-0-0-0-0-0-0---0-0-0---|-----0-0-0----0-0--0--0-0--0-|


  W                       +W
|-----------------------|-------------------------|
|-----------------------|-------------------------|
|-----------------------|-------------------------|
|-2---------------------|-(2)---------------------|
|-4---------------------|-(4)---------------------|
|-----------------------|-------------------------|
|
| TP                       TP   TP    TP    TP
| W                        Q    Q     Q     Q
|-----------------------|-------------------------|
|-----------------------|-------------------------|
|-----------------------|-------------------------|
|-----------------------|-------------------7-----|
|-7---------------------|-------7-----------------|
|-----------------------|--5----------8-----------|
|
|-----------------------------------------------|
| S S e S S e E e S S E    E  e S S E S S e S S e
|-----------------------|-------------------------|
|-----------------------|-------------------------|
|-----------------------|-------------------------|
|-----------------------|-------------------------|
|-0-0-0-0-0-0---0-0-0---|-----0-0-0---0-0-0-0-0-0-|
|-0-0-0-0-0-0---0-0-0---|-----0-0-0---0-0-0-0-0-0-|


 Chorus 1
  Q=186
  Gtr IV
  W                H.  E                E
|--------------|--------------------------|
|--------------|------------------------6-|
|--------------|--------------------------|
|--------------|--------------------------|
|--------------|--------------------------|
|--------------|--------------------------|
|
| Gtr I
|         PM
| H.      E  E    +E   E  E  E  E  q    E
|--------------|--------------------------|
|--------------|--------------------------|
|-----------12-|-(12)-12-12-12-12-14---10-|
|--------------|--------------------------|
|---------x-10-|-(10)-10-10-10-10-12----8-|
|---------x----|--------------------------|
|
| Gtr II
|                                    PM
| W               +H.                E  E
|--------------|--------------------------|
|--------------|--------------------------|
|--------------|--------------------------|
|-0------------|--(0)-------------------8-|
|-0------------|--(0)----------------x--8-|
|-0------------|--(0)----------------x--8-|


   +E   E  E  E  E  E  E  E    +E   E  E  E  E  E  E  E
|-------------------------8-|--(8)----------------------|
|--(6)-----------6-----8----|---------10-----8-10-----6-|
|----------7----------------|---------------------------|
|-------8-----8-----8-------|-------8-----8--------8----|
|-------5-----5-----5-------|-------5-----5--------5----|
|---------------------------|---------------------------|
|
| Gtr I
|  +E   E  E  E  E  E  E  E    +E   E  E  E  E  E  E  E
|---------------------------|---------------------------|
|---------------------------|---------------------------|
|-(10)-10-10-10-10-10-10-10-|-(10)-10-10-10-10-12-12--9-|
|---------------------------|---------------------------|
|--(8)--8--8--8--8--8--8--8-|--(8)--8--8--8--8-10-10--7-|
|---------------------------|---------------------------|
|
| Gtr II
|  +E   E  E  E  E  E  E  E    +E   E  E  E  E  E  E  E
|---------------------------|---------------------------|
|---------------------------|---------------------------|
|---------------------------|---------------------------|
|--(8)--8--8--8--8--8--8--8-|--(8)--8--8--8--8--8--8-10-|
|--(8)--8--8--8--8--8--8--8-|--(8)--8--8--8--8--8--8-10-|
|--(8)--8--8--8--8--8--8--8-|--(8)--8--8--8--8--8--8-10-|


   +E   E  E  E  E  E  E  E    +E   E  E  E  E  E  E  E
|---------------------------|-----------------------------|
|--(6)-----6-----5--6-------|---------10-----8-10-----6---|
|-------------------------7-|--(7)------------------------|
|------10----10-------10----|------10----10-------10------|
|-------5-----5--------5----|-------5-----5--------5------|
|---------------------------|-----------------------------|
|
|  +E   E  E  E  E  E  E  E    +E   E  E  E  E  E  E  E
|---------------------------|-----------------------------|
|---------------------------|-----------------------------|
|--(9)--9--9--9--9--9--9--7-|--(7)--7--7--7--7--7--7-10---|
|---------------------------|-----------------------------|
|--(7)--7--7--7--7--7--7--5-|--(5)--5--5--5--5--5--5--8---|
|---------------------------|-----------------------------|
|
|  +E   E  E  E  E  E  E  E    +E   E  E  E  E  q     E
|---------------------------|-----------------------------|
|---------------------------|-----------------------------|
|------------------------14-|-(14)-14-14-14-14-14---------|
|-(10)-10-10-10-10-10-10----|-------------------------8---|
|-(10)-10-10-10-10-10-10-12-|-(12)-12-12-12-12-12-----8---|
|-(10)-10-10-10-10-10-10----|-------------------------8---|


   +E   E  E  E  E  E  E  E    +E   E  E  E  E  E  E  E
|-------------------------8-|--(8)----------------------|
|--(6)-----------6-----8----|---------10-----8-10-----6-|
|----------7----------------|---------------------------|
|-------8-----8-----8-------|-------8-----8--------8----|
|-------5-----5-----5-------|-------5-----5--------5----|
|---------------------------|---------------------------|
|
|  +E   E  E  E  E  E  E  E    +E   E  E  E  E  E  E  E
|---------------------------|---------------------------|
|---------------------------|---------------------------|
|-(10)-10-10-10-10-10-10-10-|-(10)-10-10-10-10-12-12--9-|
|---------------------------|---------------------------|
|--(8)--8--8--8--8--8--8--8-|--(8)--8--8--8--8-10-10--7-|
|---------------------------|---------------------------|
|
|  +E   E  E  E  E  E  E  E    +E   E  E  E  E  E  E  E
|---------------------------|---------------------------|
|---------------------------|---------------------------|
|---------------------------|---------------------------|
|--(8)--8--8--8--8--8--8--8-|--(8)--8--8--8--8--8--8-10-|
|--(8)--8--8--8--8--8--8--8-|--(8)--8--8--8--8--8--8-10-|
|--(8)--8--8--8--8--8--8--8-|--(8)--8--8--8--8--8--8-10-|


   +E   E  E  E  E  E  E  E     E   E  E  E  E  E E  E
|---------------------------|--------------------------|
|--(6)-----6-----5--6-------|------10--8--6--8--6------|
|-------------------------7-|--(7)----------------7--5-|
|------10----10-------10----|--10----------------------|
|-------5-----5--------5----|--------------------------|
|---------------------------|--------------------------|
|
|  +E   E  E  E  E  E  E  E    +E   E  E  E  E  E E  E
|---------------------------|--------------------------|
|---------------------------|--------------------------|
|--(9)--9--9--9--9--9--9--7-|--(7)--7--7--7--7--7-7-10-|
|---------------------------|--------------------------|
|--(7)--7--7--7--7--7--7--5-|--(5)--5--5--5--5--5-5--8-|
|---------------------------|--------------------------|
|
|  +E   E  E  E  E  E  E  E    +E   E  E  E  E  Q    E
|---------------------------|--------------------------|
|---------------------------|--------------------------|
|------------------------12-|-(12)-12-12-12-12-14------|
|-(10)-10-10-10-10-10-10----|------------------------8-|
|-(10)-10-10-10-10-10-10-10-|-(10)-10-10-10-10-12----8-|
|-(10)-10-10-10-10-10-10----|------------------------8-|


    E   E  E  E  E  E  E  E    +E   E  E  E  E  E  E  E
|-------------------------8-|--(8)----------------------|
|---6------------6-----8----|---------10-----8-10-----6-|
|----------7----------------|---------------------------|
|-------8-----8-----8-------|-------8-----8--------8----|
|-------5-----5-----5-------|-------5-----5--------5----|
|---------------------------|---------------------------|
|
|  +E   E  E  E  E  E  E  E    +E   E  E  E  E  E  E  E
|---------------------------|---------------------------|
|---------------------------|---------------------------|
|-(10)-10-10-10-10-10-10-10-|-(10)-10-10-10-10-12-12--9-|
|---------------------------|---------------------------|
|--(8)--8--8--8--8--8--8--8-|--(8)--8--8--8--8-10-10--7-|
|---------------------------|---------------------------|
|
|  +E   E  E  E  E  E  E  E    +E   E  E  E  E  E  E  E
|---------------------------|---------------------------|
|---------------------------|---------------------------|
|---------------------------|---------------------------|
|--(8)--8--8--8--8--8--8--8-|--(8)--8--8--8--8--8--8-10-|
|--(8)--8--8--8--8--8--8--8-|--(8)--8--8--8--8--8--8-10-|
|--(8)--8--8--8--8--8--8--8-|--(8)--8--8--8--8--8--8-10-|


   +E   E  E  E  E  E  E  E    +E   E  E  E  E  E  E  E
|---------------------------|---------------------------|
|--(6)-----6-----5--6-------|---------10-----8-10-----6-|
|-------------------------7-|--(7)----------------------|
|------10----10-------10----|------10----10-------10----|
|-------5-----5--------5----|-------5-----5--------5----|
|---------------------------|---------------------------|
|
|  +E   E  E  E  E  E  E  E    +E   E  E  E  E  E  E  E
|---------------------------|---------------------------|
|---------------------------|---------------------------|
|--(9)--9--9--9--9--9--9--7-|--(7)--7--7--7--7--7--7-10-|
|---------------------------|---------------------------|
|--(7)--7--7--7--7--7--7--5-|--(5)--5--5--5--5--5--5--8-|
|---------------------------|---------------------------|
|
|  +E   E  E  E  E  E  E  E    +E   E  E  E  E  q     E
|---------------------------|---------------------------|
|---------------------------|---------------------------|
|------------------------14-|-(14)-14-14-14-14-14-------|
|-(10)-10-10-10-10-10-10----|-------------------------8-|
|-(10)-10-10-10-10-10-10-12-|-(12)-12-12-12-12-12-----8-|
|-(10)-10-10-10-10-10-10----|-------------------------8-|


   +E   E  E  E  E  E  E  E    +E   E  E  E  E  E  E  E
|-------------------------8-|--(8)----------------------|
|--(6)-----------6-----8----|---------10-----8-10-----6-|
|----------7----------------|---------------------------|
|-------8-----8-----8-------|-------8-----8--------8----|
|-------5-----5-----5-------|-------5-----5--------5----|
|---------------------------|---------------------------|
|
|  +E   E  E  E  E  E  E  E    +E   E  E  E  E  E  E  E
|---------------------------|---------------------------|
|---------------------------|---------------------------|
|-(10)-10-10-10-10-10-10-10-|-(10)-10-10-10-10-12-12--9-|
|---------------------------|---------------------------|
|--(8)--8--8--8--8--8--8--8-|--(8)--8--8--8--8-10-10--7-|
|---------------------------|---------------------------|
|
|  +E   E  E  E  E  E  E  E    +E   E  E  E  E  E  E  E
|---------------------------|---------------------------|
|---------------------------|---------------------------|
|---------------------------|---------------------------|
|--(8)--8--8--8--8--8--8--8-|--(8)--8--8--8--8--8--8-10-|
|--(8)--8--8--8--8--8--8--8-|--(8)--8--8--8--8--8--8-10-|
|--(8)--8--8--8--8--8--8--8-|--(8)--8--8--8--8--8--8-10-|


   +E   E  E  E  E  E  E  E    +E   E  E  E  E  E E E
|---------------------------|-------------------------|
|--(6)-----6-----5--6-------|------10--8--6--8--6-----|
|-------------------------7-|--(7)----------------7-5-|
|------10----10-------10----|-------------------------|
|-------5-----5--------5----|-------------------------|
|---------------------------|-------------------------|
|
|                                                   PM
|  +E   E  E  E  E  E  E  E    +E   E  E  E  E  E E E
|---------------------------|-------------------------|
|---------------------------|-------------------------|
|--(9)--9--9--9--9--9--9--7-|--(7)--7--7--7--7--7-7---|
|---------------------------|-------------------------|
|--(7)--7--7--7--7--7--7--5-|--(5)--5--5--5--5--5-5-0-|
|---------------------------|-----------------------0-|
|
|                                                   PM
|  +E   E  E  E  E  E  E  E    +E   E  E  E  E  Q   E
|---------------------------|-------------------------|
|---------------------------|-------------------------|
|------------------------12-|-(12)-12-12-12-12-14-----|
|-(10)-10-10-10-10-10-10----|-------------------------|
|-(10)-10-10-10-10-10-10-10-|-(10)-10-10-10-10-12---0-|
|-(10)-10-10-10-10-10-10----|-----------------------0-|


 I guess you'd call it a verse
  Q=183
 3/4            5/4
  Gtr I
     PM      PM     PM      PM
  |--3---|       |--3---|
  E. q.  Q.  E   E. q.  Q.  E E     E E E
|--------------|---------------------------|
|-6------------|-6------------6-----6-6-6--|
|-9------------|-9------------9b10==9-9-9r-|
|--------0-----|--------0------------------|
|----0---0---x-|----0---0---x--------------|
|----0---0---x-|----0---0---x--------------|


   3/4            5/4
    Gtrs I, II
       PM      PM     PM      PM
    |--3---|       |--3---|
    E. q.  Q.  E   E. q.  Q.  E E     E E E   4x
||---------------|----------------------------||
||o-6------------|-6------------6-----6-6-6--o||
||--9------------|-9------------9b10==9-9-9r--||
||---------0-----|--------0-------------------||
||o----0---0---0-|----0---0---0--------------o||
||-----0---0---0-|----0---0---0---------------||


   E  E  E  E  E  E  E  E    E  E  E  E  E  E  E  E
|-------------------------|-------------------------|
|-------------------------|-------------------------|
|-------------------------|-------------------------|
|-10-10-10-10-10-10-10-10-|-10-10-10-10-10-10-10-10-|
|--8--8--8--8--8--8--8--8-|--8--8--8--8--8--8--8--8-|
|--8--8--8--8--8--8--8--8-|--8--8--8--8--8--8--8--8-|


   E  E  E  E  E  E  E  E    q  H.
|-------------------------|-----------|
|-------------------------|-----------|
|-------------------------|-----------|
|-12-12-12-12-12-12-12-12-|-12--------|
|-10-10-10-10-10-10-10-10-|-10--------|
|-10-10-10-10-10-10-10-10-|-10--------|


 Breakdown 1
  Q=142
  PM------------------------------------------
  S S e E e E S S e E   E e Q  S S S S S S e
|---------------------|----------------------|
|---------------------|----------------------|
|---------------------|----------------------|
|---------------------|----------------------|
|-1-1-1---1---1-1-1---|---1----1-1-1-1-1-1-1-|
|-0-0-0---0---0-0-0---|---0----0-0-0-0-0-0-0-|


 ------------------------------------|  ~~~
  S S e E e E S S e E   E e Q  S S S S  Q
|---------------------|---------------------|
|---------------------|---------------------|
|---------------------|---------------------|
|---------------------|---------------------|
|-1-1-1---1---1-1-1---|---1----1-1-1-1-[3]--|
|-0-0-0---0---0-0-0---|---0----0-0-0-0------|


  S S S e S S S S e S S S S S   E S S S e S S S Q.
|-----------------------------|-------------------------|
|-----------------------------|-------------------------|
|-----------------------------|-------------------------|
|-----------------------------|-------------------------|
|-0-0-0-0---0-0-0-0---0-0-0-0-|---0-0-0-0---0-0-8tr12---|
|-0-0-0-0---0-0-0-0---0-0-0-0-|---0-0-0-0---0-0---------|


  S S S e S S S S e S S S S S   E S S S e S Q       Q
|-----------------------------|---------------------------|
|-----------------------------|---------------------------|
|-----------------------------|---------------------------|
|-----------------------------|---------------------------|
|-0-0-0-0---0-0-0-0---0-0-0-0-|---0-0-0-0---8tr12--12\----|
|-0-0-0-0---0-0-0-0---0-0-0-0-|---0-0-0-0----------12\----|


  PM------------------------------------------
  S S e E e E S S e E   E e Q  S S S S S S e
|---------------------|----------------------|
|---------------------|----------------------|
|---------------------|----------------------|
|---------------------|----------------------|
|-1-1-1---1---1-1-1---|---1----1-1-1-1-1-1-1-|
|-0-0-0---0---0-0-0---|---0----0-0-0-0-0-0-0-|


 ------------------------------------|  ~~~
  S S e E e E S S e E   E e Q  S S S S  Q
|---------------------|---------------------|
|---------------------|---------------------|
|---------------------|---------------------|
|---------------------|---------------------|
|-1-1-1---1---1-1-1---|---1----1-1-1-1-[3]--|
|-0-0-0---0---0-0-0---|---0----0-0-0-0------|


  S S S e S S S S e S S S S S   E S S S e S S S Q.
|-----------------------------|-------------------------|
|-----------------------------|-------------------------|
|-----------------------------|-------------------------|
|-----------------------------|-------------------------|
|-0-0-0-0---0-0-0-0---0-0-0-0-|---0-0-0-0---0-0-8tr12---|
|-0-0-0-0---0-0-0-0---0-0-0-0-|---0-0-0-0---0-0---------|


  S S S e S S S S e S S S S S   E S S S e S Q       Q
|-----------------------------|---------------------------|
|-----------------------------|---------------------------|
|-----------------------------|---------------------------|
|-----------------------------|---------------------------|
|-0-0-0-0---0-0-0-0---0-0-0-0-|---0-0-0-0---8tr12--12\----|
|-0-0-0-0---0-0-0-0---0-0-0-0-|---0-0-0-0----------12\----|


  H=H                                         Q=160
  Gtr V
   |--3--|  |--3--|  |--3--|    |--3--|
   E  E  E  E  E  E  E  E  E    E  E  E  E  E  E  E
|-10-------12-------13-------|-12-------13----15----|
|----10-------10-------10----|----10-------10----10-|
|-------10-------10-------10-|-------10-------------|
|--7-------------------------|----------------------|
|--0-------------------------|----------------------|
|----------------------------|----------------------|


 Bridge
  Q=186
  Gtr III
  W             +W              +W              +W
|-6-----------|-(6)-----------|-(6)-----------|-(6)-----------|
|-------------|---------------|---------------|---------------|
|-7-----------|-(7)-----------|-(7)-----------|-(7)-----------|
|-8-----------|-(8)-----------|-(8)-----------|-(8)-----------|
|-------------|---------------|---------------|---------------|
|-------------|---------------|---------------|---------------|
|
| Gtrs I, II
| Q  Q  Q  Q     Q   Q  Q  Q     Q   Q  Q  Q     Q   Q  Q  Q
|-------------|---------------|---------------|---------------|
|-------------|---------------|---------------|---------------|
|-------------|---------------|---------------|---------------|
|-8--8--8--8--|--8---8--8--8--|--8---8--8--8--|--8---8--8--8--|
|-8--8--8--8--|--8---8--8--8--|--8---8--8--8--|--8---8--8--8--|
|-8--8--8--8--|--8---8--8--8--|--8---8--8--8--|--8---8--8--8--|


  W             +W               W                 +W
|-5-----------|-(5)-----------|-----------------|-------------------|
|-6-----------|-(6)-----------|--8--------------|--(8)--------------|
|-7-----------|-(7)-----------|--9--------------|--(9)--------------|
|-------------|---------------|-10--------------|-(10)--------------|
|-------------|---------------|-----------------|-------------------|
|-------------|---------------|-----------------|-------------------|
|
| Q  Q  Q  Q     Q   Q  Q  Q     Q   Q   Q   Q      Q    Q   Q   Q
|-------------|---------------|-----------------|-------------------|
|-------------|---------------|-----------------|-------------------|
|-------------|---------------|-----------------|-------------------|
|-0--0--0--0--|--0---0--0--0--|-10--10--10--10--|--10---10--10--10--|
|-0--0--0--0--|--0---0--0--0--|-10--10--10--10--|--10---10--10--10--|
|-0--0--0--0--|--0---0--0--0--|-10--10--10--10--|--10---10--10--10--|


  W             +W              +W              +W
|-6-----------|-(6)-----------|-(6)-----------|-(6)-----------|
|-------------|---------------|---------------|---------------|
|-7-----------|-(7)-----------|-(7)-----------|-(7)-----------|
|-8-----------|-(8)-----------|-(8)-----------|-(8)-----------|
|-------------|---------------|---------------|---------------|
|-------------|---------------|---------------|---------------|
|
| Q  Q  Q  Q     Q   Q  Q  Q     Q   Q  Q  Q     Q   Q  Q  Q
|-------------|---------------|---------------|---------------|
|-------------|---------------|---------------|---------------|
|-------------|---------------|---------------|---------------|
|-8--8--8--8--|--8---8--8--8--|--8---8--8--8--|--8---8--8--8--|
|-8--8--8--8--|--8---8--8--8--|--8---8--8--8--|--8---8--8--8--|
|-8--8--8--8--|--8---8--8--8--|--8---8--8--8--|--8---8--8--8--|


                                                                       Gtr IV
  W             +W               W                 +H.             +E  E
|-5-----------|-(5)-----------|-----------------|------------------------|
|-6-----------|-(6)-----------|--8--------------|--(8)-------------(8)-6-|
|-7-----------|-(7)-----------|--9--------------|--(9)-------------(9)---|
|-------------|---------------|-10--------------|-(10)------------(10)---|
|-------------|---------------|-----------------|------------------------|
|-------------|---------------|-----------------|------------------------|
|
| Q  Q  Q  Q     Q   Q  Q  Q     Q   Q   Q   Q      Q    Q   E  E   E  E
|-------------|---------------|-----------------|------------------------|
|-------------|---------------|-----------------|------------------------|
|-------------|---------------|-----------------|------------------------|
|-0--0--0--0--|--0---0--0--0--|-10--10--10--10--|--10---10--10-10--10--8-|
|-0--0--0--0--|--0---0--0--0--|-10--10--10--10--|--10---10--10-10--10--8-|
|-0--0--0--0--|--0---0--0--0--|-10--10--10--10--|--10---10--10-10--10--8-|


 Chorus 2
   +E   E  E  E  E  E  E  E    +E   E  E  E  E  E  E  E
|-------------------------8-|--(8)----------------------|
|--(6)-----------6-----8----|---------10-----8-10-----6-|
|----------7----------------|---------------------------|
|-------8-----8-----8-------|-------8-----8--------8----|
|-------5-----5-----5-------|-------5-----5--------5----|
|---------------------------|---------------------------|
|
| Gtr I
|   E   E  E  E  E  E  E  E    +E   E  E  E  E  E  E  E
|---------------------------|---------------------------|
|---------------------------|---------------------------|
|-(10)-10-10-10-10-10-10-10-|-(10)-10-10-10-10-12-12--9-|
|---------------------------|---------------------------|
|--(8)--8--8--8--8--8--8--8-|--(8)--8--8--8--8-10-10--7-|
|---------------------------|---------------------------|
|
| Gtr II
|  +E   E  E  E  E  E  E  E    +E   E  E  E  E  E  E  E
|---------------------------|---------------------------|
|---------------------------|---------------------------|
|---------------------------|---------------------------|
|--(8)--8--8--8--8--8--8--8-|--(8)--8--8--8--8--8--8-10-|
|--(8)--8--8--8--8--8--8--8-|--(8)--8--8--8--8--8--8-10-|
|--(8)--8--8--8--8--8--8--8-|--(8)--8--8--8--8--8--8-10-|


   +E   E  E  E  E  E  E  E    +E   E  E  E  E  E  E  E
|---------------------------|---------------------------|
|--(6)-----6-----5--6-------|---------10-----8-10-----6-|
|-------------------------7-|--(7)----------------------|
|------10----10-------10----|------10----10-------10----|
|-------5-----5--------5----|-------5-----5--------5----|
|---------------------------|---------------------------|
|
|  +E   E  E  E  E  E  E  E    +E   E  E  E  E  E  E  E
|---------------------------|---------------------------|
|---------------------------|---------------------------|
|--(9)--9--9--9--9--9--9--7-|--(7)--7--7--7--7--7--7-10-|
|---------------------------|---------------------------|
|--(7)--7--7--7--7--7--7--5-|--(5)--5--5--5--5--5--5--8-|
|---------------------------|---------------------------|
|
|  +E   E  E  E  E  E  E  E    +E   E  E  E  E  q     E
|---------------------------|---------------------------|
|---------------------------|---------------------------|
|------------------------14-|-(14)-14-14-14-14-14-------|
|-(10)-10-10-10-10-10-10----|-------------------------8-|
|-(10)-10-10-10-10-10-10-12-|-(12)-12-12-12-12-12-----8-|
|-(10)-10-10-10-10-10-10----|-------------------------8-|


   +E   E  E  E  E  E  E  E    +E   E  E  E  E  E  E  E
|-------------------------8-|--(8)----------------------|
|--(6)-----------6-----8----|---------10-----8-10-----6-|
|----------7----------------|---------------------------|
|-------8-----8-----8-------|-------8-----8--------8----|
|-------5-----5-----5-------|-------5-----5--------5----|
|---------------------------|---------------------------|
|
|  +E   E  E  E  E  E  E  E    +E   E  E  E  E  E  E  E
|---------------------------|---------------------------|
|---------------------------|---------------------------|
|-(10)-10-10-10-10-10-10-10-|-(10)-10-10-10-10-12-12--9-|
|---------------------------|---------------------------|
|--(8)--8--8--8--8--8--8--8-|--(8)--8--8--8--8-10-10--7-|
|---------------------------|---------------------------|
|
|  +E   E  E  E  E  E  E  E    +E   E  E  E  E  E  E  E
|---------------------------|---------------------------|
|---------------------------|---------------------------|
|---------------------------|---------------------------|
|--(8)--8--8--8--8--8--8--8-|--(8)--8--8--8--8--8--8-10-|
|--(8)--8--8--8--8--8--8--8-|--(8)--8--8--8--8--8--8-10-|
|--(8)--8--8--8--8--8--8--8-|--(8)--8--8--8--8--8--8-10-|


   +E   E  E  E  E  E  E  E     E   E  E  E  E  E E  E
|---------------------------|--------------------------|
|--(6)-----6-----5--6-------|------10--8--6--8--6------|
|-------------------------7-|--(7)----------------7--5-|
|------10----10-------10----|--10----------------------|
|-------5-----5--------5----|--------------------------|
|---------------------------|--------------------------|
|
|  +E   E  E  E  E  E  E  E    +E   E  E  E  E  E E  E
|---------------------------|--------------------------|
|---------------------------|--------------------------|
|--(9)--9--9--9--9--9--9--7-|--(7)--7--7--7--7--7-7-10-|
|---------------------------|--------------------------|
|--(7)--7--7--7--7--7--7--5-|--(5)--5--5--5--5--5-5--8-|
|---------------------------|--------------------------|
|
|  +E   E  E  E  E  E  E  E    +E   E  E  E  E  Q    E
|---------------------------|--------------------------|
|---------------------------|--------------------------|
|------------------------12-|-(12)-12-12-12-12-14------|
|-(10)-10-10-10-10-10-10----|------------------------8-|
|-(10)-10-10-10-10-10-10-10-|-(10)-10-10-10-10-12----8-|
|-(10)-10-10-10-10-10-10----|------------------------8-|


    E   E  E  E  E  E  E  E    +E   E  E  E  E  E  E  E
|-------------------------8-|--(8)----------------------|
|---6------------6-----8----|---------10-----8-10-----6-|
|----------7----------------|---------------------------|
|-------8-----8-----8-------|-------8-----8--------8----|
|-------5-----5-----5-------|-------5-----5--------5----|
|---------------------------|---------------------------|
|
|  +E   E  E  E  E  E  E  E    +E   E  E  E  E  E  E  E
|---------------------------|---------------------------|
|---------------------------|---------------------------|
|-(10)-10-10-10-10-10-10-10-|-(10)-10-10-10-10-12-12--9-|
|---------------------------|---------------------------|
|--(8)--8--8--8--8--8--8--8-|--(8)--8--8--8--8-10-10--7-|
|---------------------------|---------------------------|
|
|  +E   E  E  E  E  E  E  E    +E   E  E  E  E  E  E  E
|---------------------------|---------------------------|
|---------------------------|---------------------------|
|---------------------------|---------------------------|
|--(8)--8--8--8--8--8--8--8-|--(8)--8--8--8--8--8--8-10-|
|--(8)--8--8--8--8--8--8--8-|--(8)--8--8--8--8--8--8-10-|
|--(8)--8--8--8--8--8--8--8-|--(8)--8--8--8--8--8--8-10-|


   +E   E  E  E  E  E  E  E    +E   E  E  E  E  E  E  E
|---------------------------|---------------------------|
|--(6)-----6-----5--6-------|---------10-----8-10-----6-|
|-------------------------7-|--(7)----------------------|
|------10----10-------10----|------10----10-------10----|
|-------5-----5--------5----|-------5-----5--------5----|
|---------------------------|---------------------------|
|
|  +E   E  E  E  E  E  E  E    +E   E  E  E  E  E  E  E
|---------------------------|---------------------------|
|---------------------------|---------------------------|
|--(9)--9--9--9--9--9--9--7-|--(7)--7--7--7--7--7--7-10-|
|---------------------------|---------------------------|
|--(7)--7--7--7--7--7--7--5-|--(5)--5--5--5--5--5--5--8-|
|---------------------------|---------------------------|
|
|  +E   E  E  E  E  E  E  E    +E   E  E  E  E  q     E
|---------------------------|---------------------------|
|---------------------------|---------------------------|
|------------------------14-|-(14)-14-14-14-14-14-------|
|-(10)-10-10-10-10-10-10----|-------------------------8-|
|-(10)-10-10-10-10-10-10-12-|-(12)-12-12-12-12-12-----8-|
|-(10)-10-10-10-10-10-10----|-------------------------8-|


   +E   E  E  E  E  E  E  E    +E   E  E  E  E  E  E  E
|-------------------------8-|--(8)----------------------|
|--(6)-----------6-----8----|---------10-----8-10-----6-|
|----------7----------------|---------------------------|
|-------8-----8-----8-------|-------8-----8--------8----|
|-------5-----5-----5-------|-------5-----5--------5----|
|---------------------------|---------------------------|
|
|  +E   E  E  E  E  E  E  E    +E   E  E  E  E  E  E  E
|---------------------------|---------------------------|
|---------------------------|---------------------------|
|-(10)-10-10-10-10-10-10-10-|-(10)-10-10-10-10-12-12--9-|
|---------------------------|---------------------------|
|--(8)--8--8--8--8--8--8--8-|--(8)--8--8--8--8-10-10--7-|
|---------------------------|---------------------------|
|
|   E   E  E  E  E  E  E  E    +E   E  E  E  E  E  E  E
|---------------------------|---------------------------|
|---------------------------|---------------------------|
|---------------------------|---------------------------|
|---8---8--8--8--8--8--8--8-|--(8)--8--8--8--8--8--8-10-|
|---8---8--8--8--8--8--8--8-|--(8)--8--8--8--8--8--8-10-|
|---8---8--8--8--8--8--8--8-|--(8)--8--8--8--8--8--8-10-|


   +E   E  E  E  E  E  E  E    +E   E  E  E  E  E  E  E
|---------------------------|---------------------------|
|--(6)-----6-----5--6-------|------10--8--6--8--6-------|
|-------------------------7-|--(7)-----------------7--5-|
|------10----10-------10----|---------------------------|
|-------5-----5--------5----|---------------------------|
|---------------------------|---------------------------|
|
|  +E   E  E  E  E  E  E  E    +E   E  E  E  E  E  E  E
|---------------------------|---------------------------|
|---------------------------|---------------------------|
|--(9)--9--9--9--9--9--9--7-|--(7)--7--7--7--7--7--7-10-|
|---------------------------|---------------------------|
|--(7)--7--7--7--7--7--7--5-|--(5)--5--5--5--5--5--5--8-|
|---------------------------|---------------------------|
|
|  +E   E  E  E  E  E  E  E    +E   E  E  E  E  Q.
|---------------------------|---------------------------|
|---------------------------|---------------------------|
|------------------------12-|-(12)-12-12-12-12-14-------|
|-(10)-10-10-10-10-10-10----|---------------------------|
|-(10)-10-10-10-10-10-10-10-|-(10)-10-10-10-10-12-------|
|-(10)-10-10-10-10-10-10----|---------------------------|


 Mini-Breakdown
  Gtrs I, II
                        PM--|   PM----------------------------------|
  W          W          S S e E S S e E S S S S   e E S S S S e E e E
|----------|----------|-------------------------|---------------------|
|----------|----------|-------------------------|---------------------|
|----------|----------|-------------------------|---------------------|
|----------|----------|-------------------------|---------------------|
|----------|----------|-0-0-0---0-0-0---0-0-0-0-|-0---0-0-0-0-0---0---|
|----------|----------|-0-0-0---0-0-0---0-0-0-0-|-0---0-0-0-0-0---0---|


 Badass Scream
  Q=143
  Wx3
|--------|
|--------|
|--------|
|--------|
|--------|
|--------|


 Breakdown 2
  Gtr II
  PM----|   PM----|   PM--------|   PM----------|
  S S S e S S S S e S S S S S   e E S S S S e E e E
|-----------------------------|---------------------|
|-----------------------------|---------------------|
|-----------------------------|---------------------|
|-----------------------------|---------------------|
|-1-1-1-1---1-1-1-1---1-1-1-1-|-1---1-1-1-1-1---1---|
|-0-0-0-0---0-0-0-0---0-0-0-0-|-0---0-0-0-0-0---0---|


  PM----|   PM----|   PM--------|   PM----------|
  S S S e S S S S e S S S S S   e E S S S S e E e E
|-----------------------------|------------------------|
|-----------------------------|------------------------|
|-----------------------------|------------------------|
|-----------------------------|------------------------|
|-1-1-1-1---1-1-1-1---1-1-1-1-|-1---1-1-1-1-1---1------|
|-0-0-0-0---0-0-0-0---0-0-0-0-|-0---0-0-0-0-0---0------|


  Gtr I
  E   E   E   E   E   E   E   E     E E E   E   E E E E
|---------------------------------|---------------------|
|---------------------------------|---------------------|
|---------------------------------|---------------------|
|---------------------------------|---------------------|
|---------7---8---8---7-----------|-----7---8---8-7-----|
|-7---8-------------------8---5---|-7-8-------------8-5-|
|
| PM----|     PM----|     PM--------|   PM----------|
| S S S e   S S S S e   S S S S S   e E S S S S e E e E
|---------------------------------|---------------------|
|---------------------------------|---------------------|
|---------------------------------|---------------------|
|---------------------------------|---------------------|
|-1-1-1-1-----1-1-1-1-----1-1-1-1-|-1---1-1-1-1-1---1---|
|-0-0-0-0-----0-0-0-0-----0-0-0-0-|-0---0-0-0-0-0---0---|


  E   E   E   E   E   E   E   E     E E E   E   E E E E
|---------------------------------|------------------------|
|---------------------------------|------------------------|
|---------------------------------|------------------------|
|---------------------------------|------------------------|
|---------7---8---8---7-----------|-----7---8---8-7--------|
|-7---8-------------------8---5---|-7-8-------------8-5----|
|
| PM----|     PM----|     PM--------|   PM----------|
| S S S e   S S S S e   S S S S S   e E S S S S e E e E
|---------------------------------|------------------------|
|---------------------------------|------------------------|
|---------------------------------|------------------------|
|---------------------------------|------------------------|
|-1-1-1-1-----1-1-1-1-----1-1-1-1-|-1---1-1-1-1-1---1------|
|-0-0-0-0-----0-0-0-0-----0-0-0-0-|-0---0-0-0-0-0---0------|


 Rave Section
  Gtr IV
   E E  E  E  E    S   S    E   E      E E  E  E  E  E  E   E
|----------------------------------|---------------------------|
|-10---------10--(10)----------10--|-/13---------13--------13--|
|------10-------------10--(10)-----|-------10----------10------|
|----------------------------------|---------------------------|
|----5-(5)-5-(5)---5--(5)--(5)-(5)-|-----1-(1)-1-(1)-1-(1)-(1)-|
|----------------------------------|---------------------------|
|
| Gtr II
|  W                                   W
|----------------------------------|---------------------------|
|----------------------------------|---------------------------|
|----------------------------------|---------------------------|
|----------------------------------|---------------------------|
|----------------------------------|---------------------------|
|----------------------------------|---------------------------|


   E E  E  E  E    S   S    E   E    E E  E  E  E  E      E  E
|----------------------------------|-------------------------------|
|-10---------10--(10)----------10--|-8----------8------------------|
|------10-------------10--(10)-----|------5---------------5--------|
|----------------------------------|-------------------------------|
|----8-(8)-8-(8)---8--(8)--(8)-(8)-|---3-(3)-3-(3)-3-----(3)-3-----|
|----------------------------------|-------------------------------|
|
|  W                                 e e  e  e  s  s s s  s  s s s
|----------------------------------|-------------------------------|
|----------------------------------|-------------------------------|
|----------------------------------|-5-5--5--5--5--5-5-5--5--5-5-5-|
|----------------------------------|-5-5--5--5--5--5-5-5--5--5-5-5-|
|----------------------------------|-3-3--3--3--3--3-3-3--3--3-3-3-|
|----------------------------------|-------------------------------|


     E E    E  E    E    S   S    E   E        E E    E  E    E  E    E   E
||-----------------------------------------|-----------------------------------|
||o-10-------------10--(10)----------10----|-/13-------------13----------13----|
||---------10---------------10--(10)-------|---------10--------------10--------|
||-----------------------------------------|-----------------------------------|
||o----5---(5)-5---(5)---5--(5)--(5)-(5)---|-----1---(1)-1---(1)-1---(1)-(1)---|
||-----------------------------------------|-----------------------------------|
|
|    E S S  E  S S  E    S   S    E   S  S     E S S  E  S S  E  S S  E   S  S
||-----------------------------------------|-----------------------------------|
||o----------------------------------------|-----------------------------------|
||---7------7-------7-------------7--------|---3------3-------3-------3--------|
||---7-7-7--7--7-7--7----7---7----7---7--7-|---3-3-3--3--3-3--3--3-3--3---3--3-|
||o--5-5-5--5--5-5--5----5---5----5---5--5-|---1-1-1--1--1-1--1--1-1--1---1--1-|
||-----------------------------------------|-----------------------------------|


   E E    E  E    E    S   S    E   E      E E    E  E    E  E    E  E
|----------------------------------------|-----------------------------------||
|-10-------------10--(10)----------10----|-8--------------8-----------------o||
|--------10---------------10--(10)-------|--------5---------------5----------||
|----------------------------------------|-----------------------------------||
|----8---(8)-8---(8)---8--(8)--(8)-(8)---|---3---(3)-3---(3)-3---(3)-3------o||
|----------------------------------------|-----------------------------------||
|
|  E S S  E  S S  E    S   S    E   S  S   E S S  E  S S  E  S S  E  S S
|----------------------------------------|-----------------------------------||
|----------------------------------------|----------------------------------o||
|----------------------------------------|-5------5-------5-------5----------||
|--3------3-------3-------------3--------|-5-5-5--5--5-5--5--5-5--5--5-5-----||
|--3-3-3--3--3-3--3----3---3----3---3--3-|-3-3-3--3--3-3--3--3-3--3--3-3----o||
|--3-3-3--3--3-3--3----3---3----3---3--3-|-----------------------------------||


  W           W           H.       +E   E    E Q   Q   Q.
|----------|-----------|------------------|-----------------|
|----------|-13--------|------------------|-10-8------------|
|-7--------|-----------|-10-------(10)-12-|-------10---9----|
|----------|-----------|------------------|-----------------|
|----------|-----------|------------------|-----------------|
|----------|-----------|------------------|-----------------|
|
| Gtr III
| W           W           W                  H       H
|----------|-----------|------------------|-----------------|
|-6--------|-----------|------------------|-----------------|
|----------|--5--------|------------------|--5--------------|
|----------|-----------|--7---------------|----------5------|
|----------|-----------|------------------|-----------------|
|----------|-----------|------------------|-----------------|


  W           W           H.       +E   E    E Q   Q   Q.
|----------|-----------|------------------|-----------------|
|----------|-13--------|------------------|-10-8------------|
|-7--------|-----------|-10-------(10)-12-|-------10---9----|
|----------|-----------|------------------|-----------------|
|----------|-----------|------------------|-----------------|
|----------|-----------|------------------|-----------------|
|
| W           W           W                  H       H
|----------|-----------|------------------|-----------------|
|-6--------|-----------|------------------|-----------------|
|----------|--5--------|------------------|--5--------------|
|----------|-----------|--7---------------|----------5------|
|----------|-----------|------------------|-----------------|
|----------|-----------|------------------|-----------------|


 Outro
  Gtrs I, II
  PM---------------|       PM-----------------|
  S S e E e E. S S e S   E e Q  S S S S S S S S
|----------------------|------------------------|
|----------------------|------------------------|
|----------------------|------------------------|
|----------------------|------------------------|
|-0-0-0---0----0-0-0---|---0----0-0-0-0-0-0-0-0-|
|-1-1-1---1----1-1-1---|---1----1-1-1-1-1-1-1-1-|


  W          +W           +W           +W
|----------|------------|------------|--------|
|-6--------|-(6)--------|-(6)--------|-(6)----|
|-9--------|-(9)--------|-(9)--------|-(9)----|
|-0--------|-(0)--------|-(0)--------|-(0)----|
|-0--------|-(0)--------|-(0)--------|-(0)----|
|-0--------|-(0)--------|-(0)--------|-(0)----|


  +W           +W           +W           +W
|------------|------------|------------|--------*|
|-(6)--------|-(6)--------|-(6)--------|-(6)----*|
|-(9)--------|-(9)--------|-(9)--------|-(9)----*|
|-(0)--------|-(0)--------|-(0)--------|-(0)----*|
|-(0)--------|-(0)--------|-(0)--------|-(0)----*|
|-(0)--------|-(0)--------|-(0)--------|-(0)----*|


Duration Legend
---------------
W - whole; H - half; Q - quarter; E - 8th; S - 16th; T - 32nd; X - 64th; a - acciaccatura
+ - note tied to previous; . - note dotted; .. - note double dotted
Uncapitalized letters represent notes that are staccato (1/2 duration)
Irregular groupings are notated above the duration line
Duration letters will always appear directly above the note/fret number it represents the
duration for.  Duration letters with no fret number below them represent rests.  Multi-
bar rests are notated in the form Wxn, where n is the number of bars to rest for.  Low
melody durations appear below the staff

Tablature Legend
----------------
 h   - hammer-on
 p   - pull-off
 b   - bend
 pb  - pre-bend
 r   - bend release (if no number after the r, then release immediately)
 /\  - slide into or out of (from/to "nowhere")
 s   - legato slide
 S   - shift slide
  - natural harmonic
[n]  - artificial harmonic
n(n) - tapped harmonic
 ~   - vibrato
 tr  - trill
 T   - tap
 TP  - trem. picking
 PM  - palm muting
\n/  - tremolo bar dip; n = amount to dip
 \n  - tremolo bar down
 n/  - tremolo bar up
/n\  - tremolo bar inverted dip
 =   - hold bend; also acts as connecting device for hammers/pulls
 <>  - volume swell (louder/softer)
 x   - on rhythm slash represents muted slash
 o   - on rhythm slash represents single note slash

Misc Legend
-----------
 |  - bar
||  - double bar
||o - repeat start
o|| - repeat end
*|  - double bar (ending)
 :  - bar (freetime)
 $  - Segno
 &  - Coda
Tempo markers -  = BPM(8/16=s8/s16), where s8 = swing 8ths, s16 = swing 16ths


***************************************************************************************
* Generated using Power Tab Editor by Brad Larsen - http://powertab.guitarnetwork.org *
***************************************************************************************

            
            
Suggest correction
Creating personal tab
Creating personal tab
You can edit any tab online and save it as your Personal.

You can edit, replace or remove any tab part or add personal notes – all changes will be seen only by you.

Personal tabs can be accessed anytime from any device, even offline.
Learn more »
Give kudos to tab author, rate the tab!
1 2 3 4 5
comments
print report bad tab
guest
You may want to rate the tab now too:
select rating
Wanna post a correction for this tab? Suggest correction