Oops, an error
Loading. Please wait.

Kings And Queens bass

285 views 3 this week
no commentswrite comment
1 2 3 4 5
2 more votes to show rating
add to favorites
×
Save as Personal and add changes to this tab that will be seen only by you. Learn more ›
×
You can save this tab as Personal to edit and correct it or add notes. All changes will be seen only by you. Learn more »
launch autoscroll
font size
0
reset
guitar tuner
edit
Autoscroll
slow
fast
+/-
esc
set tempo
stop
Kings & Queens by Audio Adrenaline Bass Tab

Tabbed by TheBassMeister

SONG: Kings & Queens
ALBUM: Kings & Queens
ARTIST: Audio Adrenaline
TUNING: B E A D G (Standard)

Nothing real fancy here, but I recommend playing with the song to get the timings and rhythm down.


INTRO - No bass, although if you feel like playing here, play the Verse 2 riff.


VERSE 1 - Come in on "On their own, on the run..."

G|-------------------------------------------------|
D|-------------------------------------------------|
A|0/12-12-12-12-12-12-12-12-15-15-15-15-15-15-15-15|
E|-------------------------------------------------|
B|-------------------------------------------------|

G|-------------------------------------------------|
D|-------------------------------------------------|
A|-------------------------------------------------|
E|-13-13-13-13-13-13-13-13-13-13-13-13-13-13-13-13-|
B|-------------------------------------------------|

Repeat once, without the slide at the beginning.


PRECHORUS 1 - I like to transition to the Prechorus by sliding down from the last verse F note.

(Play as quarter notes.)
G|-----------------------------------------------------|
D|-----------------------------------------------------|
A|-----------------0-0-0-0-----------------------------|
E|-3-3-3-3-3-3-3-3---------1-1-1-1---------1-1-1-1-3~~~|
B|---------------------------------3-3-3-3-------------|


CHORUS 1 - Truly the most complicated chorus EVER. XD

G|---------------------------------|
D|---------------------------------|
A|-3-3-3-3-3-3-3-3-----------------|
E|-----------------1-1-1-1-1-1-1-1-|
B|---------------------------------|

Repeat x4


VERSE 2 - Not sure if this rhythm is exactly right, see what you think.

G|---------------------------------|
D|---------------------------------|
A|-0-0--0-3-3--3-------------------|
E|---------------1-1--1-1--1-1--1-1|
B|---------------------------------|


PRECHORUS 2

(Play as quarter notes.)
G|-------------------------------------|
D|-------------------------------------|
A|-----------------0-0-0-0-------------|
E|-3-3-3-3-3-3-3-3---------1-1-1-1-3~~~|
B|-------------------------------------|


CHORUS 2
                                  x4
G|---------------------------------|-----------------|
D|---------------------------------|-----------------|
A|-3-3-3-3-3-3-3-3-----------------|-3-3-3-3-3-3-3-3-|
E|-----------------1-1-1-1-1-1-1-1-|-----------------|
B|---------------------------------|-----------------|


BRIDGE - No bass, not a good call by Audio Adrenaline, IMHO.  However, here's something you can do.  
         Come in on "If not us, tell me who will be..."

G|------------------------------------------------------------------------------------------------|
D|------------------------------------------------------------------------------------------------|
A|-----------------0-0-0-0-0-0-0-0----------------------------------------------------------------|
E|---------------------------------3-3-3-3-3-3-3-3-3-3-3-3-3-3-3-3-3-3-3-3-3-3-3-3-3-3-3-3-3-3-3-3|
B|-3-3-3-3-3-3-3-3--------------------------------------------------------------------------------|

Stop the last note right on the snare drum hit.


CHORUS 3 - Goes acapella, then after "When we love the least of these." everything jumps back in.

G|-----------------------------|-------------------------------------------------|
D|-----------------------------|-------------------------------------------------|
A|-----------------------------|-3-3-3-3-3-3-3-3-----------------3-3-3-3-3-3-3-3-|
E|-1-1-1-3-3-3-5-5-5-7-7-7-8---|-----------------1-1-1-1-1-1-1-1-----------------|
B|-----------------------------|-------------------------------------------------|

Repeat x2, then end on this.

G|-----------------------------|
D|-----------------------------|
A|--------------------------3~~|
E|-1-1-1-3-3-3-5-5-5-7-7-7-8---|
B|-----------------------------|

END


Thanks for viewing, and be sure to check out the performance notes below.  This song is simple and
has some different playing options to fit your playing style and skill level.

Alle Herrlichkeit zu Gott!


----------------------------------------------------------------------------------
PERFORMANCE NOTES

TUNING - You may find it easier to play this song with the E string tuned up to F.  If you do that,
         just move all E string notes down a half-step, or one fret.

PRECHORUSES - Just to clarify things, VERSE 1 is played with all notes being eighth notes, while 
              both PRECHROUS 1 & 2 are played with all notes being quarter notes to save space.  
              If you listen to the song, you will see what I'm talking about.

CHORUS 3 - This chorus makes things fancier by adding a scale to the beginning of each repetition,
           which builds from F up to C on the E string.  Since the next note is C on the A string, you
           can just stay on the E String and move back down to F from there.  Then when you go back to
           C, you can jump to the A string if you want to.  I personally think it sounds similar
           enough that it doesn't really matter, except on the final ending C that you have to hold for
           awhile.  For that, I recommend playing the C on the A string, as the sound decays at a 
           slower rate than C on the E string.

            
            
Suggest correction
Creating personal tab
Creating personal tab
You can edit any tab online and save it as your Personal.

You can edit, replace or remove any tab part or add personal notes – all changes will be seen only by you.

Personal tabs can be accessed anytime from any device, even offline.
Learn more »
Give kudos to tab author, rate the tab!
1 2 3 4 5
comments
print report bad tab
guest
You may want to rate the tab now too:
select rating
Wanna post a correction for this tab? Suggest correction