Oops, an error
Loading. Please wait.

Little Drummer Boy tab

5,477 views 6 this week
1 commentread comment
1 2 3 4 5
2 more votes to show rating
add to favorites
×
Save as Personal and add changes to this tab that will be seen only by you. Learn more ›
×
You can save this tab as Personal to edit and correct it or add notes. All changes will be seen only by you. Learn more »
launch autoscroll
font size
0
reset
how to read this tab
guitar tuner
edit
Autoscroll
slow
fast
+/-
esc
set tempo
stop
Little Drummer Boy
Audio Adrenaline

Intro
E|-------------------------------------------|
B|-------------------------------------------|
G|-------------------------------------------|
D|-9-7-8-9--9-7-8-9--9-3-8-9--9-7-8-9--12-14-|
A|-9-7-8-9--9-7-8-9--9-3-8-9--9-7-8-9--12-14-|
E|-7-5-6-7--7-5-6-7--7-5-6-7--7-5-6-7--10-12-|

Verse 1
E|-----------------------------------------------------------------------------|
B|-----------------------------------------------------------------------------|
D|-9-7-8-9--9-7-8-9-------9-7-8-9--9-7-8-9--9-7-8-9--9-7-8-9--9-7-8-9--9-7-8-9-|
A|-9-7-8-9--9-7-8-9-------9-7-8-9--9-7-8-9--9-7-8-9--9-7-8-9--9-7-8-9--9-7-8-9-|
E|-7-5-6-7--7-5-6-7--7/0--7-5-6-7--7-5-6-7--7-5-6-7--7-5-6-7--7-5-6-7--7-5-6-7-|

E|-------------------------------------------------------------------------------------|
B|-------------------------------------------------------------------------------------|
G|-------------------------------------------------------------------------------------|
D|-4-2-3-4--4-2-3-4--4-2-3-4--4-2-3-4--4-2-3-4--9-7-8-9--14-12-13-14--9-7-8-9--4-2-3-4-|
A|-4-2-3-4--4-2-3-4--4-2-3-4--4-2-3-4--4-2-3-4--9-7-8-9--14-12-13-14--9-7-8-9--4-2-3-4-|
E|-2-0-1-2--2-0-1-2--2-0-1-2--2-0-1-2--2-0-1-2--7-5-6-7--12-10-11-12--7-5-6-7--2-0-1-2-|

E|------------------------|
B|------------------------|
G|------------------------|
D|-9-7-8-9--9-7-8-9--9-9--|
A|-9-7-8-9--9-7-8-9--9-9--|
E|-7-5-6-7--7-5-6-7--7-7--|

Chorus 1:
E|----------------------------------------------------------------------------------|
B|------------------------------------------7-7----------7-7-----------7-7----------|
G|-7-7-7-7-7-7-7-7-9-9-9-9-9-9-9-9----------7-7----------7-7-----------7-7----------|
D|-7-7-7-7-7-7-7-7-9-9-9-9-9-9-9-9--9-7-8-9-----9-7-8-9-------9-7-8-9-------7-5-6-7-|
A|-5-5-5-5-5-5-5-5-7-7-7-7-7-7-7-7--9-7—8-9-----9-7-8-9-------9-7-8-9-------7-5—6-7-|
E|----------------------------------7-5-6-7-----7-5-6-7-------7-5-6-7-------7-5-6-7-|

E|-------|
B|-------|
G|-------|
D|-12-14-|
A|-12-14-|
E|-10-12-|

Verse 2:
E|-----------------------------------------------------------------------------|
B|-----------------------------------------------------------------------------|
D|-9-7-8-9--9-7-8-9-------9-7-8-9--9-7-8-9--9-7-8-9--9-7-8-9--9-7-8-9--9-7-8-9-|
A|-9-7-8-9--9-7-8-9-------9-7-8-9--9-7-8-9--9-7-8-9--9-7-8-9--9-7-8-9--9-7-8-9-|
E|-7-5-6-7--7-5-6-7--7/0--7-5-6-7--7-5-6-7--7-5-6-7--7-5-6-7--7-5-6-7--7-5-6-7-|

E|-------------------------------------------------------------------------------------|
B|-------------------------------------------------------------------------------------|
G|-------------------------------------------------------------------------------------|
D|-4-2-3-4--4-2-3-4--4-2-3-4--4-2-3-4--4-2-3-4--9-7-8-9--14-12-13-14--9-7-8-9--4-2-3-4-|
A|-4-2-3-4--4-2-3-4--4-2-3-4--4-2-3-4--4-2-3-4--9-7-8-9--14-12-13-14--9-7-8-9--4-2-3-4-|
E|-2-0-1-2--2-0-1-2--2-0-1-2--2-0-1-2--2-0-1-2--7-5-6-7--12-10-11-12--7-5-6-7--2-0-1-2-|

E|------------------------|
B|------------------------|
G|------------------------|
D|-9-7-8-9--9-7-8-9--9-9--|
A|-9-7-8-9--9-7-8-9--9-9--|
E|-7-5-6-7--7-5-6-7--7-7--|

Chorus 2:
E|---------------------------------    -------------------------------------------------|
B|---------------------------------    ---------7-7----------7-7-----------7-7----------|
G|-7-7-7-7-7-7-7-7-9-9-9-9-9-9-9-9-Play---------7-7----------7-7-----------7-7----------|
D|-7-7-7-7-7-7-7-7-9-9-9-9-9-9-9-9- 2x -9-7-8-9-----9-7-8-9-------9-7-8-9-------7-5-6-7-|
A|-5-5-5-5-5-5-5-5-7-7-7-7-7-7-7-7-    -9-7—8-9-----9-7-8-9-------9-7-8-9-------7-5—6-7-|
E|---------------------------------    -7-5-6-7-----7-5-6-7-------7-5-6-7-------7-5-6-7-|

E|-------|
B|-------|
G|-------|
D|-12-14-|
A|-12-14-|
E|-10-12-|

Solo:
Don’t have the actual solo, but here’s how to make your own: this song is in the Key of 
and here’s an Aflat scale:
E|---------------------------3-4-|
B|-----------------------4-6-----|
G|-----------------3-5-6---------|
D|-----------3-5-6---------------|
A|-----3-4-6---------------------|
E|-4-6---------------------------|
Mess around with those notes to create a solo for this song!

Verse 3:
Hold for 8 measures, then:
E|--------------------------------------------------------------------------------|
B|--------------------------------------------------------------------------------|
G|--------------------------------------------------------------------------------|
D|-4-2-3-4--------4-2-3-4---------4-2-3-4—-9-7-8-9—-14—12—13-14-—9-7-8-9—-4-2-3-4-|
A|-4-2-3-4--------4-2-3-4---------4-2-3-4—-9-7-8-9—-14—12-13—14—-9-7-8-9-—4-2-3-4-|
E|-2-0-1-2--------2-0-1-2---------2-0-1-2—-7-5-6-7—-12-10-11-12—-7-5-6-7--2-0-1-2-|

E|------------------------|
B|------------------------|
G|------------------------|
D|-9-7-8-9--9-7-8-9--9-9--|
A|-9-7-8-9--9-7-8-9--9-9--|
E|-7-5-6-7--7-5-6-7--7-7--|

Chorus 3:
E|---------------------------------    ----------------------------|
B|---------------------------------    ---------7-7----------------|
G|-7-7-7-7-7-7-7-7-9-9-9-9-9-9-9-9-Play---------7-7----------------|Play
D|-7-7-7-7-7-7-7-7-9-9-9-9-9-9-9-9- 2x -9-7-8-9-----9-7-8-9—-12-14-| 4x
A|-5-5-5-5-5-5-5-5-7-7-7-7-7-7-7-7-    -9-7—8-9-----9-7-8-9—-12-14-|
E|---------------------------------    -7-5-6-7-----7-5-6-7—-10-12-|

End With:
E|----------------------|
B|----------7-7/--0/12--|
G|----------7-7/--0/12--|
D|-9-7-8-9--------------|
A|-9-7-8-9--------------|
E|-7-5-6-7--------------|

            
            
Suggest correction
Creating personal tab
Creating personal tab
You can edit any tab online and save it as your Personal.

You can edit, replace or remove any tab part or add personal notes – all changes will be seen only by you.

Personal tabs can be accessed anytime from any device, even offline.
Learn more »
Give kudos to tab author, rate the tab!
1 2 3 4 5
comments
print report bad tab
1 comment total.
0 reply
Panhead60 10 May 02, 2009 01:09 PM

nice tab, the only thing is that i think it drops down to lower notes quiker, but i cant be sure. you're probably right, anyway, nice tab, i love this song

guest
You may want to rate the tab now too:
select rating
Wanna post a correction for this tab? Suggest correction