Oops, an error
Loading. Please wait.

Bring Em Back Alive bass

version 5
version 5

Whole song

Interactive

43 views 1 this week
no commentswrite comment
1 2 3 4 5
3 more votes to show rating
add to favorites
×
Save as Personal and add changes to this tab that will be seen only by you. Learn more ›
×
You can save this tab as Personal to edit and correct it or add notes. All changes will be seen only by you. Learn more »
launch autoscroll
font size
0
reset
guitar tuner
edit
Autoscroll
slow
fast
+/-
esc
set tempo
stop
Author
Difficulty
About this tab version
This song is played on a five string bass and no other version acknowledges that. Was this info helpful? Yes No
"Bring 'Em Back Alive" off Audioslave by Audioslave

5 String Bass played by Tim Commerford

This is basically the Version 2 Tab reworked to be played correctly on a five string.
That version subtly acknowledged that it's a five string, maybe without meaning to?
It's definitely played that way.

intro:
G|------------------------------|
D|------------------------------|
A|------------------------------| X 4
E|------------------------------|
B|--0--12-0-9\10-0--6-0-5--0-3--|

4 measure rest

G|---------------------------------|
D|---------------------------------|
A|---------------------------------| X 3
E|---------------------------------|
B|-5-5-5-5-5-5-5-5-5-5-5-5-5-5-5-5-|

G|----------------------------------|
D|-------------------------\9-9-9-9-|
A|----------------------------------|
E|----------------------------------|
B|-5-5-5-5-5-5-5-5-5-5-5-5----------|

G|-------------------------------|\
D|-------------------------------| \
A|-------------------------------|  \
E|-------------------------------|   \
B|--0--12-0-9\10-0--6-0-5--0-3---|    | X 4
                                     /
G|-----------------------------|    /
D|-----------------------------|   /
A|-----------------------------|  /
E|-----5---4\5-----------------| /
B|--3----0-----3-5-6-0-5--3-5--|/

verse:
G|-------------------------------|
D|-------------------------------|
A|-------------------------------| X 12
E|----------6-------5------------|
B|--5-3-x-x---5-x-x---5-x-x-x-8--|

chorus:
G|-------------------------------|\
D|-------------------------------| \
A|-------------------------------|  \
E|-------------------------------|   \
B|--0--12-0-9\10-0--6-0-5--0-3---|    | X 4
                                     /
G|-----------------------------|    /
D|-----------------------------|   /
A|-----------------------------|  /
E|-----5---4\5-----------------| /
B|--3----0-----3-5-6-0-5--3-5--|/

verse:
G|-------------------------------|
D|-------------------------------|
A|-------------------------------| X 10
E|----------6-------5------------|
B|--5-3-x-x---5-x-x---5-x-x-x-8--|

chorus:
G|-------------------------------|\
D|-------------------------------| \
A|-------------------------------|  \
E|-------------------------------|   \
B|--0--12-0-9\10-0--6-0-5--0-3---|    | X 3
                                     /
G|-----------------------------|    /
D|-----------------------------|   /
A|-----------------------------|  /
E|-----5---4\5-----------------| /
B|--3----0-----3-5-6-0-5--3-5--|/

G|-------------------------------|
D|-------------------------------| 
A|-------------------------------|
E|-------------------------------| 
B|--0--12-0-9\10-0--6-0-5--0-3---|  
                                   
G|-------------------------------|
D|-------------------------------|
A|-------------------------------|
E|-------------------------------|
B|--3-5-6-0-5--3-5-6-0-5--3-5----|

solo:
G|---------|---------|---------|---------|---------|---------|---------|-14-14-14-------------|
D|---------|---------|---------|---------|---------|---------|---------|----------13h14-13h14-|
A|---------|---------|---------|---------|---------|---------|---------|----------------------|
E|---------|---------|---------|---------|---------|---------|---------|----------------------|
B|-0-0-0-0-|-0-0-0-0-|-0-0-0-0-|-0-0-0-0-|-0-0-0-0-|-0-0-0-0-|-0-0-0-0-|----------------------|

G|---------|---------|---------|---------|---------|---------|---------|-14-14-14-14-14-14----|
D|---------|---------|---------|---------|---------|---------|---------|----------------------|
A|---------|---------|---------|---------|---------|---------|---------|----------------------|
E|---------|---------|---------|---------|---------|---------|---------|----------------------|
B|-0-0-0-0-|-0-0-0-0-|-0-0-0-0-|-0-0-0-0-|-0-0-0-0-|-0-0-0-0-|-0-0-0-0-|----------------------|

G|--------------------------------|
D|--------------------------------|
A|--------------------------------| X 4
E|-7-5-7------7-5-7------7-5-7----|
B|--------6----------5----------3-|
(the pause when restarting the riff or going to the next riff is shorter than the 6B to 7E and 5B to 7E pause)

G|--------------------------------|
D|--------------------------------|
A|-----5----------5----------5----| X 4
E|-5-7--------5-7--------5-7------|
B|--------6----------5----------3-|
(almost identical to above timing)

rest, then 
G|----------------------------|
D|----------------------------|
A|----------------------------|
E|----------------------------|
B|--5-5----5-5----5-5----5-5--|

G|---------|---------|---------|---------|---------|---------|---------------------|
D|---------|---------|---------|---------|---------|---------|---------|-\9-9-9-9--|
A|---------|---------|---------|---------|---------|---------|---------|-----------|
E|---------|---------|---------|---------|---------|---------|---------|-----------|
B|-5-5-5-5-|-5-5-5-5-|-5-5-5-5-|-5-5-5-5-|-5-5-5-5-|-5-5-5-5-|-5-5-5-5-|-----------|

repeat chorus before solo and end with
G|------------|
D|------------|
A|------------|
E|------------|
B|--3-5--3-5--|


Tab Legend
-----------
\  Slide down
h  hammer on
x  mute note

            
            
Suggest correction
Creating personal tab
Creating personal tab
You can edit any tab online and save it as your Personal.

You can edit, replace or remove any tab part or add personal notes – all changes will be seen only by you.

Personal tabs can be accessed anytime from any device, even offline.
Learn more »
Give kudos to tab author, rate the tab!
1 2 3 4 5
comments
print report bad tab
guest
You may want to rate the tab now too:
select rating
Wanna post a correction for this tab? Suggest correction