Oops, an error
Loading. Please wait.
We have an official I Am The Highway tab made by UG professional guitarists. Check out the tab »
×
242,180 views 312 this week
8 commentsread comments
1 2 3 4 5
x 27
add to favorites
×
Save as Personal and add changes to this tab that will be seen only by you. Learn more ›
×
You can save this tab as Personal to edit and correct it or add notes. All changes will be seen only by you. Learn more »
launch autoscroll
font size
0
reset
how to read this tab
guitar tuner
backing track
0:00
0:00
edit
Autoscroll
slow
fast
+/-
esc
set tempo
stop
Tuning: standard

Chords: Am, F, C, G, Dm, E


[Intro]
               A
e|-------------0------------------|
B|-------------1------------------|
G|-------------2------------------|
D|-------------2------------------|  
A|-------0-----0------------------|
E|--------------------------------|(x4)


[Verse 1]

F,        C,        G,      Am,      
Pearls And swine bereft of me
F,        C,        G,      Am,
long and weary my road has been 
      F,           C Am 
i was lost in the cities 
   G,        C Am,  
alone in the hills 
    F,        C,        G,      C Am,  
no sorrow or pity for leaving i feel


[Chorus]

 C         G,              Dm,  
    i am not your rolling wheels 
           Am,
i am the highway 
C,         G,              Dm,
    i am not your carpet ride 
         E slide to  007500   
i am the sky........

                                  
                      Guitar 2
e|-----------|---------|---------|---------|---------------|---------|---------|---------|---------|
B|-----------|---------|---------|---------|---------------|---------|---------|---------|---------|
G|---2-------|---------|---------|---------|-------2-------|---------|---------|---------|---------|
D|-----2-----|---------|---------|---------|---------2-----|---------|---------|---------|---------|
A|-------0---|-3-------|---------|-5-------|-0---------0---|-3-------|---------|-5-------|---------|
E|-----------|---------|-3-------|---------|---------------|---------|-3-------|---------|-0-------|

 
[Bridge]

               A
e|-------------0------------------|
B|-------------1------------------|
G|-------------2------------------|
D|-------------2------------------|  
A|-------0-----0------------------|
E|--------------------------------|(x4)


[Verse 2]

F,           C,     
friends and liars 
       G,      Am, 
don't wait for me 
     F,        C,   
cause i'll get on 
    G,     Am,   
all by myself 
      F,          C Am,                   
I put millions of miles 
    G,    C Am,  
under my heels 
    F,         C Am,      G,  C Am, 
and still too close to you i feel 


[Chorus]

C,         G,              Dm,  
    i am not your rolling wheels 
           Am,
i am the highway 
C,         G,              Dm,
    i am not your carpet ride 
         Am,
i am the sky 
C,         G,               Dm  
    i am not your blowing wind 
          Am
i am the lightining 
C,         G,             Dm
    i am not your autumn moon 
         
      007500 Slide to E 2X
i am the ni.............ght

     E,           007500
 the ni.............ght

               Guitar 2
e|----------------------------------|
B|----------------------------------|
G|--2-------------------------------|
D|----2-----------------------------|
A|------0--3-------5h7-0----5--0----|
E|------------3---------------------|

e|----------------------------------|
B|----------------------------------|
G|--2-------------------------------|
D|----2---------------5-------------|
A|------0--3-----5h7------5--0------|
E|------------3---------------------|

e|----------------------------------|
B|----------------------------------|
G|--2-------------------------------|
D|----2-----------------------------|
A|------0--3-------5h7-0----5--0----|
E|------------3---------------------|

e|----------------------------------|
B|----------------------------------|
G|--2-------------------------------|
D|----2---------------5-------------|
A|------0--3-----5h7-----5----------|
E|------------3--------------0------|

The solo tab sounds good, just use it.


[Chorus]

C,         G,              Dm,  
    i am not your rolling wheels 
           Am,
i am the highway 
C,         G,              Dm,
    i am not your carpet ride 
         Am,
i am the sky 
C,         G,               Dm  
    i am not your blowing wind 
           Am
i am the lightining 
C,         G,             Dm
    i am not your autumn moon 
         

E                       007500(If thats a chord)
i am the ni.............ght

    E,           007500
the ni.............ght


              Guitar 2
e|----------------------------------|
B|----------------------------------|
G|--2-------------------------------|
D|----2-----------------------------|
A|------0--3-------5h7-0----5--0----|
E|------------3---------------------|

e|----------------------------------|
B|----------------------------------|
G|--2-------------------------------|
D|----2---------------5-------------|
A|------0--3-----5h7------5--0------|
E|------------3---------------------|

e|----------------------------------|
B|----------------------------------|
G|--2-------------------------------|
D|----2-----------------------------|
A|------0--3-------5h7-0----5--0----|
E|------------3---------------------|

e|----------------------------------|
B|----------------------------------|
G|--2-------------------------------|
D|----2---------------5-------------|
A|------0--3-----5h7-----5----------|
E|------------3--------------0------|


[Outro]
               A
e|-------------0------------------|
B|-------------1------------------|
G|-------------2------------------|
D|-------------2------------------|  
A|-------0-----0------------------|
E|--------------------------------|(x8)

            
            
Suggest correction
Creating personal tab
Creating personal tab
You can edit any tab online and save it as your Personal.

You can edit, replace or remove any tab part or add personal notes – all changes will be seen only by you.

Personal tabs can be accessed anytime from any device, even offline.
Learn more »
comments
print report bad tab
8 comments total. Showing first comments.
0 reply
Tonye 10 Dec 23, 2005 02:02 PM

dude change the Dm to your basic D because if you follow along with the song it doesn't sound right with the Dm. Other then that, Great Tab

0 reply
CrosseGod18 464 Dec 30, 2005 04:06 PM

Sorry to bust your bubble Tonye, but that is wrong as well... It is actually a bar chord. I don't know the name of it, i saw Chris play it live, it looks like this:

e|-1--|
B|-1--|
G|-2--|
D|-3--|
A|-3--|
E|-1--|
Other than that everything looks good, you also use that bar chord in place of the F in the verse. Good no, Great tab man. I would of done one but you beat me to it.

0 reply
BirdRATM 73 Jan 12, 2007 05:50 PM

That's an F major barre chord, and it should be played instead of the "regular" F major chord (there is a difference) in all places and the D minor chord in the chorus.

Other than that, this was great.

guest
Wanna post a correction for this tab? Suggest correction