Oops, an error
Loading. Please wait.

Jewel Of The Summertime Acoustic tab

version 2
version 2

Whole song

Interactive

1,358 views 1 this week
no commentswrite comment
1 2 3 4 5
2 more votes to show rating
add to favorites
×
Save as Personal and add changes to this tab that will be seen only by you. Learn more ›
×
You can save this tab as Personal to edit and correct it or add notes. All changes will be seen only by you. Learn more »
launch autoscroll
font size
0
reset
how to read this tab
guitar tuner
edit
Autoscroll
slow
fast
+/-
esc
set tempo
stop
Audioslave-Jewel of the Summertime
Tabulated by Kyle Dixon
Album-Revelations
Tuning-Drop D

Verse/Intro (x12)
(Phaser)
e|------------------------------------------------------------------------|
A|------------------------------------------------------------------------|
G|------------------------------------------------------------------------|
D|--0--x-x--2--3----------------------------------------------------------|
A|--0--x-x--2--3--0/5-5-5-5-5-5-------------------------------------------|
D|--0--x-x--2--3----------------------------------------------------------|

Pre-Chorus

e|------|
A|------|
G|------|
D|-7--3-|
A|-7--3-|
D|-7--3-|

Chorus

Guitar 2 scratches strings in background to the beat.

e|------------------------------------------------------------------------|
A|----------8/10-8\6-8p6-----3-----3-----------3--3-----------------------|
G|------------------------------------------------------------------------|
D|------------------------------x-----x-----x-----------------------------|
A|------------------------------x-----x-----x-----------------------------|
D|------------------------0-----x-----x-----x-----------------------------|

e|------------------------------------------------------------------------|
A|----------8/10-8\6-8p6-----1-----1-----------1--1-----------------------|
G|------------------------------------------------------------------------|
D|------------------------------x-----x-----x-----------------------------|
A|------------------------------x-----x-----x-----------------------------|
D|------------------------0-----x-----x-----x-----------------------------|

e|------------------------------------------------------------------------|
A|------------------------------------------------------------------------|
G|-----7-----4-----4-----4--4---------------------------------------------|
D|--------------x-----x-----------5-----3--5------------------------------|
A|--------------x-----x-----------------3--5------------------------------|
D|--0-----0-----x-----x--------0-----0--3--5------------------------------|

e|------------------------------------------------------------------------|
A|----------8/10-8\6-8p6-----3-----3-----------3--3-----------------------|
G|------------------------------------------------------------------------|
D|------------------------------x-----x-----x-----------------------------|
A|------------------------------x-----x-----x-----------------------------|
D|------------------------0-----x-----x-----x-----------------------------|

e|------------------------------------------------------------------------|
A|----------8/10-8\6-8p6-----1-----1-----------1--1-----------------------|
G|------------------------------------------------------------------------|
D|------------------------------x-----x-----x--------7----3---------------|
A|------------------------------x-----x-----x--------7----3---------------|
D|------------------------0-----x-----x-----x--------7----3---------------|

Verse/Intro (x12)
(Phaser)
e|------------------------------------------------------------------------|
A|------------------------------------------------------------------------|
G|------------------------------------------------------------------------|
D|--0--x-x--2--3----------------------------------------------------------|
A|--0--x-x--2--3--0/5-5-5-5-5-5-------------------------------------------|
D|--0--x-x--2--3----------------------------------------------------------|

Pre-Chorus

e|------|
A|------|
G|------|
D|-7--3-|
A|-7--3-|
D|-7--3-|


Chorus

Guitar 2 scratches strings in background to the beat.

e|------------------------------------------------------------------------|
A|----------8/10-8\6-8p6-----3-----3-----------3--3-----------------------|
G|------------------------------------------------------------------------|
D|------------------------------x-----x-----x-----------------------------|
A|------------------------------x-----x-----x-----------------------------|
D|------------------------0-----x-----x-----x-----------------------------|

e|------------------------------------------------------------------------|
A|----------8/10-8\6-8p6-----1-----1-----------1--1-----------------------|
G|------------------------------------------------------------------------|
D|------------------------------x-----x-----x-----------------------------|
A|------------------------------x-----x-----x-----------------------------|
D|------------------------0-----x-----x-----x-----------------------------|

e|------------------------------------------------------------------------|
A|------------------------------------------------------------------------|
G|-----7-----4-----4-----4--4---------------------------------------------|
D|--------------x-----x-----------5-----3--5------------------------------|
A|--------------x-----x-----------------3--5------------------------------|
D|--0-----0-----x-----x--------0-----0--3--5------------------------------|

e|------------------------------------------------------------------------|
A|----------8/10-8\6-8p6-----3-----3-----------3--3-----------------------|
G|------------------------------------------------------------------------|
D|------------------------------x-----x-----x-----------------------------|
A|------------------------------x-----x-----x-----------------------------|
D|------------------------0-----x-----x-----x-----------------------------|

e|------------------------------------------------------------------------|
A|----------8/10-8\6-8p6-----1-----1-----------1--1-----------------------|
G|------------------------------------------------------------------------|
D|------------------------------x-----x-----x--------7----5----3----2-----|
A|------------------------------x-----x-----x--------7----5----3----2-----|
D|------------------------0-----x-----x-----x--------7----5----3----2-----|

Solo

Tom uses a whammy and thats all I can figure out so, yep!
Call him up to ask how he does it.
Tom Marello-(810) 599-5596...i think that's it. Sorry guys:(

Verse/Intro (x4)
(Phaser)
e|------------------------------------------------------------------------|
A|------------------------------------------------------------------------|
G|------------------------------------------------------------------------|
D|--0--x-x--2--3----------------------------------------------------------|
A|--0--x-x--2--3--0/5-5-5-5-5-5-------------------------------------------|
D|--0--x-x--2--3----------------------------------------------------------|

Pre-Chorus

e|------|
A|------|
G|------|
D|-7--3-|
A|-7--3-|
D|-7--3-|


Chorus(x4)

Guitar 2 scratches strings in background to the beat.(After first 2 lines)

e|------------------------------------------------------------------------|
A|----------8/10-8\6-8p6-----3-----3-----------3--3-----------------------|
G|------------------------------------------------------------------------|
D|------------------------------x-----x-----x-----------------------------|
A|------------------------------x-----x-----x-----------------------------|
D|------------------------0-----x-----x-----x-----------------------------|

e|------------------------------------------------------------------------|
A|----------8/10-8\6-8p6-----1-----1-----------1--1-----------------------|
G|------------------------------------------------------------------------|
D|------------------------------x-----x-----x-----------------------------|
A|------------------------------x-----x-----x-----------------------------|
D|------------------------0-----x-----x-----x-----------------------------|

e|------------------------------------------------------------------------|
A|------------------------------------------------------------------------|
G|-----7-----4-----4-----4--4---------------------------------------------|
D|--------------x-----x-----------5-----3--5------------------------------|
A|--------------x-----x-----------------3--5------------------------------|
D|--0-----0-----x-----x--------0-----0--3--5------------------------------|

Outro(x2)
Fade out
Guitar 2 scratches strings in background to the beat.

e|---------------------|
A|-----3-----3--3--33--|
G|---------------------|
D|---------------------|
A|---------------------|
D|--0-----0------------|

e|---------------------|
A|-----1-----1--1--11--|
G|---------------------|
D|---------------------|
A|---------------------|
D|--0-----0------------|

e|---------------------|
A|---------------------|
G|-----4-----4--4--44--|
D|---------------------|
A|---------------------|
D|--0-----0------------|

e|---------------------|
A|---------------------|
G|---------------------|
D|-----5-------3--5----|
A|-------------3--5----|
D|--0-----0----3--5----|

Thanks for scrolling hope this helps, leave your comments please this is my second tab 
I need some ratings and comments.
I win!

            
            
Suggest correction
Creating personal tab
Creating personal tab
You can edit any tab online and save it as your Personal.

You can edit, replace or remove any tab part or add personal notes – all changes will be seen only by you.

Personal tabs can be accessed anytime from any device, even offline.
Learn more »
Give kudos to tab author, rate the tab!
1 2 3 4 5
comments
print report bad tab
guest
You may want to rate the tab now too:
select rating
Wanna post a correction for this tab? Suggest correction