Oops, an error
Loading. Please wait.
We have an official What You Are tab made by UG professional guitarists. Check out the tab »
×
1,211 views 3 this week
no commentswrite comment
1 2 3 4 5
1 last vote to show rating
add to favorites
×
Save as Personal and add changes to this tab that will be seen only by you. Learn more ›
×
You can save this tab as Personal to edit and correct it or add notes. All changes will be seen only by you. Learn more »
launch autoscroll
font size
0
reset
how to read this tab
guitar tuner
edit
Autoscroll
slow
fast
+/-
esc
set tempo
stop
Difficulty
intermediate
 E|----------------|----------------|----------------|----------------|
 B|----------------|----------------|----------------|----------------|
 G|----------------|----------------|----------------|----------------|
 D|--4---4-----4---|--2---2-----2---|--0---0-----0---|--2---2-----2---|
 A|2---2-----2---2-|2---2-----2---2-|2---2-----2---2-|4---4-----4---0-|
 D|----------------|----------------|----------------|----------------|

 E|----------------|----------------|----------------|----------------|
 B|----------------|----------------|----------------|----------------|
 G|----------------|----------------|----------------|----------------|
 D|--4---4-----4---|--2---2-----2---|--5---5-----5---|--4---4-0-0-0-0-|
 A|2---2-----2---2-|2---2-----2---2-|5---5-----5---5-|4---4---0-0-0-0-|
 B|----------------|----------------|----------------|--------0-0-0-0-|


  chorus:

 E|----------------|----------------|----------------|----------------|
 B|----------------|----------------|----------------|----------------|
 G|4---4---4---4---|----------------|2---1---x-------|----------------|
 D|4---4---4---4---|----------------|2---2---x---5---|4---4---4---4---|
 A|2---2---2---2---|4---4---4---4---|x---x---x---5---|5---5---5---5---|
 B|----------------|7---7---7---7---|2---2---x---0---|0---0---0---0---|


 E|----------------|----------------|----------------|----------------|-----|
 B|----------------|----------------|----------------|----------------|-----|
 G|----------------|----------------|----------------|----------------|-----|
 D|----------------|----------------|----------------|----------------|-----|
 A|4---4---4---4---|4---4---4---4---|4---4---3---2---|----0-----------|-----|
 B|7---7---7---7---|7---7---7---7---|7---7---6---5---|----3-------2---|0----|

                                 |4---|
  if you can play this chord like|7---|
                                         |9---|
  but you can play it just like this way:|7---|

  but the first sounds better!!!!!if you can play it.

            
            
Suggest correction
Creating personal tab
Creating personal tab
You can edit any tab online and save it as your Personal.

You can edit, replace or remove any tab part or add personal notes – all changes will be seen only by you.

Personal tabs can be accessed anytime from any device, even offline.
Learn more »
Give kudos to tab author, rate the tab!
1 2 3 4 5
comments
print report bad tab
guest
Wanna post a correction for this tab? Suggest correction