Oops, an error
Loading. Please wait.

There Is No Such Place tab

version 1
version 1

Whole song

371 views 3 this week
2 commentsread comments
1 2 3 4 5
2 more votes to show rating
add to favorites
×
Save as Personal and add changes to this tab that will be seen only by you. Learn more ›
×
You can save this tab as Personal to edit and correct it or add notes. All changes will be seen only by you. Learn more »
launch autoscroll
font size
0
reset
how to read this tab
guitar tuner
edit
Autoscroll
slow
fast
+/-
esc
set tempo
stop
Author
There Is No Such Place by Augie March 

From - Sunset Studies (2000)

Capo – 2nd Fret

Timing – 4/4

Tuning – Standard

Tabbed by – Jucko


Picking Patterns:

Intro
  C       D       G       Em      C       D       G         
|-----------2-------------------------------2---------------------|
|---1---0-------3---------------0---1---0-------3-----------------|
|-------------2-----0---0---0-----------------2-----0---0---------|
|-----2---0-----------0-------2-------2---0-----------------------|
|-3-------------------------------3-------------------------------|
|-----------------3-------0-----------------------3---3---3-------|

Verses 
  C       D       G       Em      C       D       G       Em  
|-----------2-------------------------------2---------------------|
|---1---0-------3---------------0---1---0-------3---------------0-|
|-------------2-----0---0---0-----------------2-----0---0---0-----|
|-----2---0-----------0-------2-------2---0-----------0-------2---|
|-3-------------------------------3-------------------------------|
|-----------------3-------0-----------------------3-------0-------|

  C       D       G       Em      C       D       G         
|-----------2-------------------------------2---------------------|
|---1---0-------3---------------0---1---0-------3-----------------|
|-------------2-----0---0---0-----------------2-----0---0---------|
|-----2---0-----------0-------2-------2---0-----------------------|
|-3-------------------------------3-------------------------------|
|-----------------3-------0-----------------------3---3---3-------|

Chorus
  G       Em      C       D       G       Em      C       D
|---------------------------2-------------------------------2-----|
|---------------0---1---0-------3---------------0---1---0-------3-|
|---0---0---0-----------------2-----0---0---0-----------------2---|
|-----0-------2-------2---0-----------0-------2-------2---0-------|
|-----------------3-------------------------------3---------------|
|-3-------0-----------------------3-------0-----------------------|

  G       Em      C       D       G       Em      C       D
|---------------------------2-------------------------------2---2-|
|---------------0---1---0-------3---------------0---1---0---------|
|---0---0---0-----------------2-----0---0---0-----------------2---|
|-----0-------2-------2---0-----------0-------2-------2---0-------|
|-----------------3-------------------------------3---------------|
|-3-------0-----------------------3-------0-----------------------|

  D
|---2---2---2---2-|
|-----------------|
|-----2-------2---|
|-----------------|
|-----------------|
|-----------------|


Intro 

C  D  G  Em 

C  D  G  G 

Verse 1

C           D          G     Em     
  There is no such place,             
      C              D      
O yes I have seen it too
       G                     Em
Just a little different from how you do,
  C             D              G           Em
A river winding blue among the dunes and a marble bed
  C                D             G 
A sun that doesn't set but settles. 

Verse 2 

C           D          G     Em     
  There is no such place,             
     C             D               G              Em
If I lower mine to yours would you kiss me on the face?
          C               D              G    Em
If you're looking for the unmarked place,
         C      D     G    Em
There is no such place 
C            D              G            Em
Blasted in appearance and a composite of fearful minute
C              D             G
 Frozen in the waking instant 

Chorus

G    Em   C        D 
Longing,  things I long for,
G        Em      C                D
Peaceful nights, strangers at the door,
G    Em    C    D
Come in,   come in,
G           Em    C   D
You've been here  before 

Verse 3

C          D         G   Em
  There is no such place,
      C              D               G                Em
So perhaps we have a reason, for our long and falling face,
      C               D                 G
Above all it would be warm but we would keep our heads all
Em                C                D                 G 
Clear as winter, storms would be a sight to make us shiver
        Em
But without the chill
   C               D               
Of thinking all is hither-thither 

Chorus

G    Em   C        D 
Longing,  things I long for,
G        Em      C                D
Peaceful nights, strangers at the door,
G    Em    C    D
Come in,   come in,
G           Em    C   D
You've been here  before 
G           Em    C   D
You've been here  before 

Verse 4

C           D            G    Em     
  There is no such place,             
      C              D      
O yes I have seen it too
       G                     Em
Just a little different from how you do,
  C            D            G
A house upon a hill with no windows
       Em           C
Just a can upon the sill
              D
To catch your tears
             G (rake this last chord)         
To feed your garden. 

End

            
            
Suggest correction
Creating personal tab
Creating personal tab
You can edit any tab online and save it as your Personal.

You can edit, replace or remove any tab part or add personal notes – all changes will be seen only by you.

Personal tabs can be accessed anytime from any device, even offline.
Learn more »
Give kudos to tab author, rate the tab!
1 2 3 4 5
comments
print report bad tab
2 comments total.
0 reply
gclawatson1 10 Dec 22, 2016 03:51 PM

Glenn Richards plays this with capo on 2, not 4 - the chords are right though, thanks

0 reply
Jucko 1,456 Dec 25, 2016 09:53 PM

That's been amended, cheers gclawatson1!

guest
You may want to rate the tab now too:
select rating
Wanna post a correction for this tab? Suggest correction