Oops, an error
Loading. Please wait.

Downtown tab

1,908 views 3 this week
1 commentread comment
1 2 3 4 5
2 more votes to show rating
add to favorites
×
Save as Personal and add changes to this tab that will be seen only by you. Learn more ›
×
You can save this tab as Personal to edit and correct it or add notes. All changes will be seen only by you. Learn more »
launch autoscroll
font size
0
reset
how to read this tab
guitar tuner
edit
Autoscroll
slow
fast
+/-
esc
set tempo
stop
Author
-------------------------------------------------------------------------------
                             DOWNTOWN - August Alsina
-------------------------------------------------------------------------------
Tabbed by: Kamdude

Tuning: Standard
  
This is a fun song to play that I just learned. This should work for the whole song

 INTRO GUITAR

e|---3-3-----0-0-0-----------------------------------|
B|---0-0-----3-3-3-----------------------------------|
G|---------------------------------------------------|
D|---------------------------------------------------|
A|-------2-3-----------------------------------------|
E|-0-------------------------------------------------|

 CHORDS

  Em      Cadd9
e|---------0--0-------------------------------------------------------------|
B|-0-------3--3-------------------------------------------------------------|
G|-0-------0--0-------------------------------------------------------------|
D|-2-------2--2-------------------------------------------------------------|
A|-2-------3--3-------------------------------------------------------------|
E|-0------------------------------------------------------------------------|


 THIS IS HOW I PLAY THE COOL GUITAR PART THROUGHOUT THE SONG

e|-----3----2----0---------------------------------------------|
B|---0-------------0------3-------0---------0------------------|
G|---=-----------------0-----0-------0----2--------------------|
D|-------------------------------------------------------------|
A|-------------------3-----------------------------------------|
E|-0-----0----0------------------------------------------------|


Listen to the song and play it and you should figure it out. Should be easy with practice

            
            
Suggest correction
Creating personal tab
Creating personal tab
You can edit any tab online and save it as your Personal.

You can edit, replace or remove any tab part or add personal notes – all changes will be seen only by you.

Personal tabs can be accessed anytime from any device, even offline.
Learn more »
Give kudos to tab author, rate the tab!
1 2 3 4 5
comments
print report bad tab
1 comment total.
0 reply
erenuluer25 20 May 10, 2017 06:21 AM

Thank you for the Tab, Amazing work, got it on point!! possible that you could Song Cry's intro by August as well?

guest
You may want to rate the tab now too:
select rating
Wanna post a correction for this tab? Suggest correction