Oops, an error
Loading. Please wait.

Frosty The Snowman tab

version 1
version 1

Whole song

Interactive

10,267 views 3 this week
2 commentsread comments
1 2 3 4 5
x 9
add to favorites
×
Save as Personal and add changes to this tab that will be seen only by you. Learn more ›
×
You can save this tab as Personal to edit and correct it or add notes. All changes will be seen only by you. Learn more »
launch autoscroll
font size
0
reset
how to read this tab
guitar tuner
edit
Autoscroll
slow
fast
+/-
esc
set tempo
stop
August Burns Red - Frosty The Snowman
Tabbed by:Metalcoreking
Email:Matthessell@live.com
Tuning:CGCFAD

[Intro]
D|--------------------------------------------------------------------------|
A|----------8--7-8-10-8-7----------7-8-10-8-7~------8-----------------------|
F|-/7---5-7---------------9-7--7+--------------9~-7------7-9-7~-5-4---7~\---|
C|----9-----------------------------------------------9-------------7-------|
G|--------------------------------------------------------------------------|
C|--------------------------------------------------------------------------|
                                                                          
D|--------------------------------------------------------------------------|
A|----------8--7-8-10-8-7---------7-8-10-8-7~------8------------------------|
F|-/7---5-7---------------9-7--7--------------9~-7------7-9-7~-5-4----------|
C|----9-----------------------------------------------9-------------7-5~\---|
G|--------------------------------------------------------------------------|
C|--------------------------------------------------------------------------|

D|--------------15--14-15-17-15-14-12h14p12-----14-15-17-15-14-12h14p12-----|
A|-/15----13-15-----------------------------15~-----------------------------|
F|-----16-------------------------------------------------------------------|
C|--------------------------------------------------------------------------|
G|--------------------------------------------------------------------------|
C|--------------------------------------------------------------------------|
                                                                          
D|----15--------------------------------------------------------------------|
A|-15--------15-17-15-13----------------------------------------------------|
F|-------16--------------16-14-19+\-----------------------------------------|
C|--------------------------------------------------------------------------|
G|--------------------------------------------------------------------------|
C|--------------------------------------------------------------------------|

[RIFF I]
D|--------------------------------------------------------------------------|
A|--------------------------------------------------------------------------|
F|--------------------------------------------------------------------------|
C|---------------------5---5---4-5-7---5---4---2----------------------------|
G|-5---5---5---2-3-5-----------------3---3---3---3-5---5---5----------------|
C|---5---5---5-------5---5---5-----------------------5---5---5--------------|
     x   x   x       x   x   x       x   x   x   x   x   x   x              

D|--------------------------------------------------------------------------|
A|--------------------------------------------------------------------------|
F|--------------------------------------------------------------------------|
C|-4-5-7---5---4---2-2-----5------------------------------------------------|
G|-------3---3---3-----5-------2---5-7-5---3---2---0---5-----5---5-5--------|
C|-----------------------5---5---5-------0---0---0---0---5-5---5-----5------|
         x   x   x     x x   x   x       x   x   x   x   x x   x     x      

D|--------------------------------------------------------------------------|
A|---------------------8---8---7-8-10---8---7---5---------------7-8---------|
F|-7---7---7---4-5-7--------------------------------7---7---7---------------|
C|--------------------------------------------------------------------------|
G|------------------------------------3---3---3---3-------------------------|
C|---5---5---5-------5---5---5------------------------5---5---5-------------|
     x   x   x       x   x   x        x   x   x   x   x   x   x             

D|--------------------------------------------------------------------------|
A|-10---8---7---5--5-----8--------------------------------------------------|
F|-------------------7-------4---7-9-7---5---4------------------------------|
C|-----------------------------------------------7--------------------------|
G|----3---3---3---------------------------------------5-5-5-5-5-5-5-5-------|
C|---------------------5---5---5-------0---0---0---0--5-5-5-5-5-5-5-5-------|
      x   x   x        x   x   x       x   x   x   x  x x x x x x x x

[RIFF II]
D|--------------------------------------------------------------------------|
A|--------------------------------------------------------------------------|
F|--------------------------------------------------------------------------|
C|-2---2---5---5---4---2-------2--------2-----------------------------------|
G|---3---3---3---3---3---3-5-3---3--3-0---0-5-0-3-2-2-2-2-2-2-2-2-2---------|
C|--------------------------------------------------5-5-5-5-5-5-5-5---------|
     x   x   x   x   x   x x x x x  x x   x x x x x x x x x x x x x         

D|--------------------------------------------------------------------------|
A|--------------------------------------------------------------------------|
F|-------------------------2---2-2--2---0-----------------------------------|
C|-----------------4---4--------------------4-------------------------------|
G|-0---0---5---5--------------------------------7---5-0-0-0-0-0-0-----------|
C|---0---0---0---0---0---0---0--------0---0---0---0---0-0-0-0-0-0-----------|
     x   x   x   x   x   x   x        x   x   x   x   x x x x x x

D|--------------------------------------------------------------------------|
A|---------------------8---8---7-8-10---8---7---5---------------7-8---------|
F|-7---7---7---4-5-7--------------------------------7---7---7---------------|
C|--------------------------------------------------------------------------|
G|------------------------------------3---3---3---3-------------------------|
C|---5---5---5-------5---5---5------------------------5---5---5-------------|
     x   x   x       x   x   x        x   x   x   x   x   x   x             

D|--------------------------------------------------------------------------|
A|-10---8---7---5--5-----8--------------------------------------------------|
F|-------------------7-------4---7-9-7---5---4------------------------------|
C|-----------------------------------------------7--------------------------|
G|----3---3---3---------------------------------------5-5-5-5--5-5-5--------|
C|---------------------5---5---5-------0---0---0---0--5-5-5-5--5-5-5--------|
      x   x   x        x   x   x       x   x   x   x  x x x x  x x x

[BREAKDOWN]
D|--------------------------------------------------------------------------|
A|--------------------------------------------------------------------------|
F|--------------------------------------------------------------------------|
C|--------------------------------------------------------------------------|
G|-0-0-0--0--0--0-0-0-0--0-0-0-0--0-0-0--0--0--0-0-0-0--0-0-0---------------|
C|-0-0-0--0--0--0-0-0-0--0-0-0-0--0-0-0--0--0--0-0-0-0--0-0-0---------------|
   x x x  x  x  x x x x  x x x x  x x x  x  x  x x x x  x x x               

D|--------------------------------------------------------------------------|
A|--------------------------------------------------------------------------|
F|--------------------------------------------------------------------------|
C|----------------------------------3+--------------------------------------|
G|-0-0-0--0--0--0-0--0-0-0-0--0-0-0-----------------------------------------|
C|-0-0-0--0--0--0-0--0-0-0-0--0-0-0-----------------------------------------|
   x x x  x  x  x x  x x x x  x x x                   
                      
D|--------------------------------------------------------------------------|
A|--------------------------------------------------------------------------|
F|--------------------------------------------------------------------------|
C|--------------------------------------------------------------------------|
G|-0-0-0--0--0--0-0-0-0--0-0-0----------------------------------------------|
C|-0-0-0--0--0--0-0-0-0--0-0-0----------------------------------------------|
   x x x  x  x  x x x x  x x x                                              

D|--------------------------------------------------------------------------|
A|--------------------------------------------------------------------------|
F|--------------------------------------------------------------------------|
C|--------------------------------------------------------------------------|
G|-5-5-5--5--5--5-5-5-5--5-5-5-5--5-5-5--5--5--5-5-5-5--5-5-5---------------|
C|-5-5-5--5--5--5-5-5-5--5-5-5-5--5-5-5--5--5--5-5-5-5--5-5-5---------------|
   x x x  x  x  x x x x  x x x x  x x x  x  x  x x x x  x x x               

D|--------------------------------------------------------------------------|
A|--------------------------------------------------------------------------|
F|--------------------------------------------------------------------------|
C|--------------------------------------------------------------------------|
G|-5-5-5--5--5--5-5-5-5--5-5-5-5--5-5-5--5--5--0-0-0-0--0-0-0---------------|
C|-5-5-5--5--5--5-5-5-5--5-5-5-5--5-5-5--5--5--0-0-0-0--0-0-0---------------|
   x x x  x  x  x x x x  x x x x  x x x  x  x  x x x x  x x x

[Outro]
D|--------------------------------------------------------------------------|
A|----------8--7-8-10-8-7----------7-8-10-8-7~------8-----------------------|
F|-/7---5-7---------------9-7--7+--------------9~-7------7-9-7~-5-4---7~\---|
C|----9-----------------------------------------------9-------------7-------|
G|--------------------------------------------------------------------------|
C|--------------------------------------------------------------------------|

D|--------------15--14-15-17-15-14-12h14p12-----14-15-17-15-14-12h14p12-----|
A|-/15----13-15-----------------------------15~-----------------------------|
F|-----16-------------------------------------------------------------------|
C|--------------------------------------------------------------------------|
G|--------------------------------------------------------------------------|
C|--------------------------------------------------------------------------|
                                                                         
D|----15--------------------------------------------------------------------|
A|-15--------15-17-15-13-------15~\-----------------------------------------|
F|-------16--------------16-14----------------------------------------------|
C|--------------------------------------------------------------------------|
G|--------------------------------------------------------------------------|
C|--------------------------------------------------------------------------|



************************************

| ~  Vibrato
| /  Slide up
| h  Hammer-on
| p  Pull-off

************************************

            
            
Suggest correction
Creating personal tab
Creating personal tab
You can edit any tab online and save it as your Personal.

You can edit, replace or remove any tab part or add personal notes – all changes will be seen only by you.

Personal tabs can be accessed anytime from any device, even offline.
Learn more »
comments
print report bad tab
2 comments total.
0 reply
joshuachristie21 10 Dec 31, 2017 03:10 PM

thanks! great tab!

0 reply
thepokerranke 10 Jan 02, 2018 05:45 PM

wicked tab man. goodnjob

guest
You may want to rate the tab now too:
select rating
Wanna post a correction for this tab? Suggest correction