Oops, an error
Loading. Please wait.
We have an official Marianas Trench tab made by UG professional guitarists. Check out the tab »
×
162,721 views 111 this week
5 commentsread comments
1 2 3 4 5
x 43
add to favorites
×
Save as Personal and add changes to this tab that will be seen only by you. Learn more ›
×
You can save this tab as Personal to edit and correct it or add notes. All changes will be seen only by you. Learn more »
launch autoscroll
font size
0
reset
how to read this tab
guitar tuner
edit
Autoscroll
slow
fast
+/-
esc
set tempo
stop
[Mariana's Trench]
[Constellations]
[August Burns Red]

Tuning: CGCFAD (Drop C or Drop D One Step Down)
joshuaoliveira@hotmail.com

i may be getting a lil lazy in some parts of this tab.. :P
i jus hate converting gp to paper so bad! ..ugh lol

Watch the times, some things overlap.
See how many times each riff is played (No indication means 1)
Watch if each part has one guitar or two matching.
Symbols at bottum.

[Riff 1a] - [00:00] - [00:51]

|---------------------------------------------------------------------------|  
|---------5---------5---------5---------5---------0---------0---------0-----|
|-----6-----6---6-----6---6-----6---6-----6---6-----6---6-----6---6-----6---|
|-------7---------7---------7---------7---------7---------7---------7-------|
|---8---------8---------8---------8---------0---------0---------0-----------|
|---------------------------------------------------------------------------|
|---------------------------------------------------------------------------|(x6)

D|---------8p5-|
A|-----5h6-----|
F|-------------|
C|---0---------|
G|-------------|
C|-------------|

[Riff 1b] - [00:00] - [00:51]

|---------------------------------------------------------------------------|  
|-------------------------------------0---------0---------0---------0-------|
|-------------------------------------6---------6---------6---------6-------|
|-------7---------7---------7---------7---------7---------7---------7-------|
|---8---------8---------8---------8---------0---------0---------0-----------|
|---------------------------------------------------------------------------|
|---------------------------------------------------------------------------|(x6)

D|-------------|
A|-------------| 
F|-------------|
C|---0---------| 
G|-------------| 
C|-------------|


[Riff 2] - [00:17] - [00:42]

|--------------------------------------| 
|--------------------------------------|
|--------------------------------------|
|-----------10(20x)-/14(20x)-12(20x)---|
|---12(20x)----------------------------|
|--------------------------------------|
|--------------------------------------|
|--------------------------------------|(x3)

[Riff 3, Guitar 1 & 2] - [00:42] - [00:51]

|------------------------------------|
|------------------------------------|
|-----------10(20x)-/14(20x)-12(20x)-|
|---12(20x)--------------------------|
|------------------------------------|
|------------------------------------|
|------------------------------------|

|------------------------------------|
|----------------------------13(20x)-|
|-----------10(20x)-/14(20x)---------|
|---12(20x)--------------------------|
|------------------------------------|
|------------------------------------|
|------------------------------------|


[Riff 4] - [00:51] - [01:08]

|---------------------------------------------------------------------------|
|---------5---------5---------5---------5---------0---------0---------0-----|
|-----6-----6---6-----6---6-----6---6-----6---6-----6---6-----6---6-----6---|
|-------7---------7---------7---------7---------7---------7---------7-------|
|---8---------8---------8---------8---------0---------0---------0-----------|
|---------------------------------------------------------------------------|
|---------------------------------------------------------------------------|(x2)
 PM .   .     .   .     .   .     .   .     .   .     .   .     .   .

D|---------8p5-|
A|-----5h6-----|
F|-------------|
C|---0---------|
G|-------------|
C|-------------|
 PM .

[Riff 5] - [00:51] - [01:08]

D|-------------------------------------------------------------------------------------------|
A|-------------------------------------------------------------------------------------------|
F|-------------------------------------------------------------------------------------------|
C|-------------------------------------------------------------------------------------------|
G|---8-8-8---------8-8-8-8-8-8-8-------------8-8-7-7-5---5---0-0-0-------0-0-0-------0-0-0-0-|
C|---8-8-8---------8-8-8-8-8-8-8-----------------------7---7-0-0-0-------0-0-0-------0-0-0-0-|
  PM ................................................................

D|------------------------------------------------------------------------------------------|
A|------------------------------------------------------------------------------------------|
F|-------------------------------------10---------------------------------------------------|
C|-----------------7-3-------------5/8------------------------------------------------------|
G|---0-0-0-----3-5-----8-8-8-------------8-8-8-8-8-8---------8-8-7-7-5-5---0-0-0------------|
C|---0-0-0-------------8-8-8-------------8-8-8-8-8-8--------------------7-7------0-0-0------|
  PM . . .             . . .             . . . . . . . . . . . . . . . . . . . . . . . . . . 

D|-----------------------------------------|
A|-----------------------------------------|
F|-----------------------------------------|
C|-------------------------------------7-3-|
G|---0-0-0-------0-0-0-0-0-0-0-----3-5-----|
C|---0-0-0-------0-0-0-0-0-0-0-------------|
  PM . . . . . . . . . . . . . . . . .


[Riff 6, Guitar 1 & 2] - [01:08] - [01:25]

|---------------------------------------------------------------------------| 
|---------5---------5---------5---------5---------0---------0---------0-----|
|-----6-----6---6-----6---6-----6---6-----6---6-----6---6-----6---6-----6---|
|-------7---------7---------7---------7---------7---------7---------7-------|
|---8---------8---------8---------8---------0---------0---------0-----------|
|---------------------------------------------------------------------------|
|---------------------------------------------------------------------------|(x2)
 PM .   .     .   .     .   .     .   .     .   .     .   .     .   .

D|-----5--/8-----5--/8-----5--/8-----5--/8---------------------------------|
A|-------6--10-----6--10-----6--10-----6--10--10---8h10-10--8h10--10--8h10-|
F|---7---------7---------7---------7------------10--------10--------10-----|
C|-------------------------------------------7---------7---------7---------|
G|-------------------------------------------------------------------------|
C|-------------------------------------------------------------------------|
 PM .   .     .   .     .   .     .   .        ..        ..        ..

FIXED THE GUITAR HERE ^ i typoed the fuck outve it before baha 
thanks to whoever it was that emailed me about that! whoever you are

D|---------8p5-|
A|-----5h6-----|
F|-------------|
C|---0---------|
G|-------------|
C|-------------|
  PM .

D|---------5---|
A|-----------6-|
F|-----5h7-----|
C|---7---------|
G|-------------|
C|-------------|

[Riff 2] - [01:08] - [01:17] - 3x
[Riff 3, Guitar 1 & 2] - [01:17] - [01:27]

[Riff 7] - [01:25] - [01:27]

D|-------------------|
A|---5h6-----6p5-----|
F|-------5h7-----7---|
C|-----------------7-|
G|-------------------|
C|-------------------|

D|-------------------|
A|-------------------|
F|---5h7-----7p5-----|
C|-------7h8-----7p0-|
G|-------------------|
C|-------------------|


[Riff 8] - [01:27] - [01:54]

|------------------------------------------------------------| 
|------------------------------------------------------------|
|------------------------------------------------------------|
|---------------------------------------------------7p6------|
|---------------------------------8p7h8p0---5h7p5p0----7p0---|
|---5h8p5p0---------5p4h5p0----------------------------------|
|-----------0-0-0-0---------0-0-0---------0------------------|(x4)
  PM        . . . .         . . .         .

D|---------------------------------------------------------|
A|---------------------------------------------------------|
F|-------------------------------------------7p6-----------|
C|---------------------------------8p7h8p0------7----------|
G|---5h8p5p0---------5p4h5p0---------------------0h7p0h4p0-|
C|-----------0-0-0-0---------0-0-0---------0---------------|
PM           . . . .         . . .         .

[Riff 9] - [01:41] - [01:54]

|---------------------------------------------------------------------------------| 
|---------------------------------------------------------------------------------|
|---------------------------------------------------------------------------------|
|---------------------------------------------------------------------------------|
|---------------------------------------------------------------------------------|
|---5h8p5p0-0-0-0-0-----0-0-0-----0--0--0-0-0-0-0-0-0-0-0-0-0-0-----0-0-0-----0---|
|-----------0-0-0-0-----0-0-0-----0--0--0-0-0-0-0-0-0-0-0-0-0-0-----0-0-0-----0---|(x2)
 PM         . . . . . . . . . . . . . . . . . . . . . . . . . . . . . . .     .

D|-----------------|--------------------------------|
A|-----------------|--------------------------------|
F|---7p6-----------|--------------------------------|
C|------7----------|-5h7p5p0-8p7h8p0-10p8p7p0-------| 
G|-------0h7p0h4p0-|--------------------------8p7p0-|
C|-----------------|--------------------------------|(in second time)


[Riff 10] - [01:54] - [02:11]

D|----------------------------------------------------------------------------------------------|
A|----------------------------------------------------------------------------------------------|
F|-------------------------------------------------7--------------------------------------------|
C|---0-----------------------------0-----------------8----7---7---0-----------------------------|
G|---0-0-0-0-0-0-0-0-0-0-0-0-8p7p0-0-0-0-0-0-0-0-0-----10---8---7-0-0-0-0-0-0-0-0-0-0-0-0-8p7p0-|
C|---0-0-0-0-0-0-0-0-0-0-0-0-------0-0-0-0-0-0-0-0----------------0-0-0-0-0-0-0-0-0-0-0-0-------|
 PM . . . . . . . . . . .         . . . . . . .                  . . . . . . . . . . .

D|--------------------------------------------------------------------------------------------|
A|--------------------------------------------------------------------------------------------|
F|-----------------------------------------------------------------------------7--------------|
C|---0---------------3----3--4-1-0-----------------------------0-----------------8----7---7---|
G|---0-0-0-0-0-0-0-0---1-1---4-1-0-0-0-0-0-0-0-0-0-0-0-0-8p7p0-0-0-0-0-0-0-0-0-----10---8---7-|
C|---0-0-0-0-0-0-0-0---------4-1-0-0-0-0-0-0-0-0-0-0-0-0-------0-0-0-0-0-0-0-0----------------|
 PM . . . . . . .               . . . . . . . . . . .         . . . . . . .

D|-------------------------------------------------------|
A|-------------------------------------------------------|
F|-------------------------------------------------------|
C|---0---------------------------0---------------8-8-4-6-|
G|---0-0-0-0-0-0-0-0-0-0-0-8p7p0-0-0-0-0-0-0-0-0-8-8-4-6-|
C|---0-0-0-0-0-0-0-0-0-0-0-------0-0-0-0-0-0-0-0-8-8-4-6-|
PM  . . . . . . . . . .         . . . . . . .


[Riff 11] - [02:11] - [02:19

|----------------------------------------------------------------------------| 
|----------------------------------------------------------------------------|
|----------------------------------------------------------------------------|
|--------------------------------------------------------10------------------|
|---8--------10------8--------10h11p8-8--------10---11--------11---10--------|
|---8---11--------11-8---11-----------8---11--------------------------11p8---|
|---8-8----8----8----8-8----8---------8-8----8----8----8----8----8-----------|(x2)
PM   .    .    .      .    .           .    .    .    .    .    .

 [Riff 12, Guitar 1 & 2] - [02:19] - [02:23]
D|-------------------------------------------------------------------|
A|---------------------6-------------------------------6-------------|
F|-------------5---6-------6---5---------------5---6-------6---5-----|
C|---4-----6-----4---4---4---4---6p4-4-----6-----4---4---4---4---6p4-|
G|---4-------------------------------4-------------------------------|
C|---4---4---4-----------------------4---4---4-----------------------|
PM     .   .   .   .   .   .           .   .   .   .   .   .

D|-------------------------------------------------------------------|
A|-------------------------------------------------------------------|
F|---------------------6-------------------------------6-------------|
C|---4---------6---8-------8---6-----4---------6---8-------8---6-----|
G|---4-----8---------------------8p4-4-----8---------------------8p4-|
C|---4---4---4---4---4---4---4-------4---4---4---4---4---4---4-------|
PM     .   .   .   .   .   .           .   .   .   .   .   .

[Riff 11] - [02:23] - [02:29] - (x2)
[Riff 12, Guitar 2] - [02:29] - [02:35]

[Riff 13] - [02:35] - [02:40]

D|-------------------------------------------------------------------|
A|-------------------------------------------------------------------|
F|-----------------------------------------------------3---3---6\----|
C|---1-----3---3---1-----------------1-----3---4---1-----------------|
G|---1-----------------4---4---4p1---1-------------------------------|
C|---1---1---1---1---1---1---1-------1---1---1---1---1---1---1-------|
PM     .   .   .   .   .   .           .   .   .   .   .   .


[Riff 14] - [02:40] - [02:56]

D|-------------------------------16-----------------------------------------|
A|--------------------------------------------------------------------------|
F|---10/13-13--13-13-13-13-13-13----13-13-12\-3---3---3-3-3-5---5---5-5-5---|
C|---x--x--x---x--x--x--x--x--x-----x--x--x---x---x---x-x-x-x---x---x-x-x---|
G|---8/-11-11--11-11-11-11-11-11----11-11-8\--1---1---1-1-1-3---3---3-3-3---|
C|--------------------------------------------------------------------------|

D|--------------------13--16------16----------13-------13-------------------|
A|--------------14h16---------14--------13h14----13h14----13h14-------------|
F|---15------15-------------------------------------------------15/---13----|
C|--------------------------------------------------------------------------|
G|--------------------------------------------------------------------------|
C|--------------------------------------------------------------------------|

D|----------------------------------16-14-13-----16-14-13-14-13----------|
A|--------------------9/14-13-14-16----------14-----------------14-13----|
F|--------------10-11-------------------------------------------------15-|
C|--------10-11----------------------------------------------------------|
G|---8-11----------------------------------------------------------------|
C|-----------------------------------------------------------------------|
PM . .  .  .  .  .  .  .  .  .  .  .  .  .  .  . 

D|---------13---------16p14p13----------16p14p13----------|
A|---14------------------------16p14p13----------16p14p13-|
F|------15----13~-----------------------------------------|
C|--------------------------------------------------------|
G|--------------------------------------------------------|
C|--------------------------------------------------------|

D|---16p14p13-16p14p13----------13h14h16/18--18--13h14p13------------------|
A|---------------------13h14h16---------------------------14--13h14p13-----|
F|---------------------------------------------------------------------15~-|
C|-------------------------------------------------------------------------|
G|-------------------------------------------------------------------------|
C|-------------------------------------------------------------------------|

[Riff 15] - [02:40] - [02:56]

D|-------------------------------------|-----------------------------------|
A|----(Strum For 1 Bar Each)-----------|------(Play for last 2 bars)-------|
F|-------------------------------------|-----------------------------------|
C|---11-11-8-8-11-11-8-8-11-11-8-8-8-8-|-11--11--11-11-11-10--11-11-11-11\-|
G|---8--8--4-4-8--8--4-4-8--8--4-4-9-9-|-8---8---8--8--8--8---8--8--8--8\--|
C|---8--8--4-4-8--8--4-4-8--8--4-4-8-8-|-8---8---8--8--8--8---8--8--8--8\--|


[Riff 16] - [02:56] - [03:05]

D|------------------------------------------------------------------------|
A|------------------------------------4-------------------6---6---7p6p4---|
F|--------------------------------5h6-------------5---6-------------------|
C|---8----------10------3-----6---------4-----6---------------------------|
G|---8-----11--------11-3---------------4---------------------------------|
C|---8---8----8----8----3---3---3-------4---4---4---4---4---4---4---------|
 PM     .    .    .        .   .           .   .   .   .   .   .

D|------------------------------------------------------------------------|
A|------------------------------------------------------------------------|
F|------------------------------------------------------------------------|
C|---8------------------3---------------4~--------------------------------|
G|---8------------------3---------------4~--------------------------------|
C|---8------------------3---------------4~--------------------------------|


D|------------------------------------------------------------------------|
A|------------------------------------4-------------------6---6---7p6p4---|
F|--------------------------------5h6-------------5---6-------------------|
C|---8----------10------3-----6---------4-----6---------------------------|
G|---8-----11--------11-3---------------4---------------------------------|
C|---8---8----8----8----3---3---3-------4---4---4---4---4---4---4---------|
 PM     .    .    .        .   .           .   .   .   .   .   .

D|------------------------------------------------------------------------|
A|------------------------------------------------------------------------|
F|------------------------------------------------------------------------|
C|---8~-----------------3~---------------4~-------------///---------------|
G|---8~-----------------3~---------------4~-------------///---------------|
C|---8~-----------------3~---------------4~-------------///---------------|

[Riff 17a] - [03:05] - [03:21]

|-------------------------------------------------------------------------| 
|-------------------------------------------------------------------------|
|------------------------------------4-------------------6---6---7p6p4----|
|--------------------------------5h6-------------5---6--------------------|
|---8----------10------3-----6---------4-----6----------------------------|
|---8-----11--------11-3---------------4----------------------------------|
|---8---8----8----8----3---3---3-------4---4---4---4---4---4---4----------|(x4)
 PM     .    .    .        .   .           .   .   .   .   .   .

D|---------|
A|---6h7h9-| end with this instead of 7p6p4
F|---------|
C|---------|
G|---------|
C|---------|


[Riff 17b] - [03:05] - [03:21]

|------------------------------------------------| 
|------------------------------------------------|
|------------------------------------------------|
|-------------strum for 1 bar each----10-5-6-6---| then this on top of it
|---11-6-8-8--------------------------x--x-x-x---| 3rd and 4th time thru.
|---8--3-4-4--------------------------8--3-4-4---|
|---8--3-4-4-------------------------------------|(x4)


[Riff 18, Guitar 1 & 2] - [03:21] - [03:23]

D|-------|
A|-------|
F|-------|
C|---11~-|
G|---8~--|
C|---8~--|

D|-------|
A|-------|
F|---11~-|
C|---x---|
G|---8~--|
C|-------|


[Riff 19] - [03:23] - [03:30]

D|---------------------------------------------------------------------|
A|---------------------------------------------------------------------|
F|-------------------------------------------------------------6h8p6---|
C|---------------------------------------------------------6h8---------|
G|-----------------------------------------------------6h8-------------|
C|---6h8-8-8-8-8-6h8-8-8-8-8-8-----------6h8-8-8-8-8-------------------|
 PM . . . . . . .     . . . . . . . . .               . . . . . . .

D|---------------------------------------------------|
A|---------------------------------------------------|
F|---------------------------------------------------|
C|---------------------------------------------------|
G|---------------------------------------4-4---4-4---|
C|---6h8-8-8-8-8-6h8-8-8-8-8-8-----------4-4---4-4---|
 PM . . . . . . .     . . . . . . . . . . . . . . . 


[Riff 20] - [03:30] - [03:37]

D|---------------------------------------------------------------------|
A|---------------------------------------------------------------------|
F|-------------------------------------------------------------6h8p6---|
C|---------------------------------------------------------6h8---------|
G|-----------------------------------------------------6h8-------------|
C|---6h8-8-8-8-8-6h8-8-8-8-8-8-----------6h8-8-8-8-8-------------------|
  PM    . . . . . . .     . . . . . . . . .           . . . . . . .

D|-----------------------------------------------------------|
A|-----------------------------------------------------------|
F|-----------------------------------------------------------|
C|---------------------------------------------------6~------|
G|---------------------------------------4-4---4-4---4~------|
C|---6h8-8-8-8-8-6h8-8-8-8-8-8-----------4-4---4-4-----------|
 PM     . . . . . . . . . . .           . .   . .


[Riff 20] - [03:37] - [04:18]

|-----------------------------------------------------------------------| 
|-----------------------------------------------------------------------|
|-----------------------------------------------------------------------|
|-------------------------------------------------------------6h8p6-----|
|---------------------------------------------------------6h8-----------|
|-----------------------------------------------------6h8---------------|
|---6h8-8-8-8-8-6h8-8-8-8-8-8-----------6h8-8-8-8-8---------------------|(x6)
 PM     .......     .........               .......

D|-------------------------------------------------------------------|
A|-------------------------------------------------------------------|
F|-------------------------------------------------------------------|
C|---------------------------------------------------6-------6-------|
G|---------------------------------------4-4---4-4---4-------6-------|
C|---6h8-8-8-8-8-6h8-8-8-8-8-8-----------4-4---4-4-----------6-------|
 PM     . . . .     . . . . .           . .   . .


[Riff 21] - [03:37] - [03:51]

|-----------------------------------------------------------------------------| 
|-----------------------------------------------------------------------------|
|-----------------------------------------------------------------------------|
|-----------10-10---------10-10-------------------10-10-----10-10-----10-10---|
|---6-6-8-8-------6-6-8-8-------8---------6-6-8-8-------6-6-------8-8---------|
|-----------------------------------------------------------------------------|
|-----------------------------------------------------------------------------|(x2)
 PM . . . . . . . . . . . . . . . . . . . . . . . . . . . . . . . . . . . . . 

D|---------------------------------------------------------------------------|
A|---------------------------------------------------------------------------|
F|-----------10-10---------10-10-------------------10-10-8-8-10-10-8-8-------|
C|---6-6-8-8-------6-6-8-8-------8---------6-6-8-8---------------------10-10-|
G|---------------------------------------------------------------------------|
C|---------------------------------------------------------------------------|
 PM . . . . . . . . . . . . . . . . . . . . . . . . . . . . . . . . . . . . 

[Riff 22] - [03:51] - [04:18]

|----------------------------------------------------------------------------|
|----------------------------------------------------------------------------|
|----------------------------------------------------------------------------|
|----------10-10-------10-10-----------------10-10---------10-10-----10-10---|
|---6-6-8-8----6-6-8-8-------6-6-8-8-6-6-8-8-------8-8-6-6-------8-8---------|
|----------------------------------------------------------------------------|
|----------------------------------------------------------------------------|(x2)
 PM . . . . . . . . . . . . . . . . . . . . . . . . . . . . . . . . . . . . . 

D|--------------------------------------------------------9-9-8-8---------|
A|----------------------------------------------------------------9-9-----|
F|-----------10-10--------10-10-----------------10-10-----------------8-8-|
C|---6-6-8-8------6-6-8-8-------6-6-8-8-6-6-8-8-------8-8-----------------|
G|------------------------------------------------------------------------|
C|------------------------------------------------------------------------|
 PM . . . . . . . . . . . . . . . . . . . . . . . . . . . . . . . . . . . 

|----------------------------------------------------------------------------|
|----------------------------------------------------------------------------|
|----------------------------------------------------------------------------|
|----------10-10-------10-10-----------------10-10---------10-10-----10-10---|
|---6-6-8-8----6-6-8-8-------6-6-8-8-6-6-8-8-------8-8-6-6-------8-8---------|
|----------------------------------------------------------------------------|
|----------------------------------------------------------------------------|
 PM . . . . . . . . . . . . . . . . . . . . . . . . . . . . . . . . . . . . . 

D|---------------------------------------------------------------------------|
A|---------------------------------------------------------------------------|
F|-----------10-10--------10-10----------------10-10-----8-8-10-10-8-8-------|
C|---6-6-8-8------6-6-8-8------6-6-8-8-6-6-8-8-------8-8---------------10-10-|
G|---------------------------------------------------------------------------|
C|---------------------------------------------------------------------------|
 PM . . . . . . . . . . . . . . . . . . . . . . . . . . . . . . . . . . . . 

************************************

| x   Dead note
| h   Hammer-on
| p   Pull-off
| /   Slide up
| \   Slide down
| ~   Vibrato
| /// Pick Slide
| PM. Palm Mute notes with (...) under them

************************************

            
            
Suggest correction
Creating personal tab
Creating personal tab
You can edit any tab online and save it as your Personal.

You can edit, replace or remove any tab part or add personal notes – all changes will be seen only by you.

Personal tabs can be accessed anytime from any device, even offline.
Learn more »
comments
print report bad tab
5 comments total. Showing first comments.
+3 reply
iamghost 807 Apr 01, 2010 11:26 AM

oh my god... you must add me haha.
your tabs are so good!!!

+1 reply
xikn0wagh0stx 10 Apr 25, 2010 04:21 PM

dude ur tab is confusing you shoul redo it with guitar 1 as 1 section and so on but anyways this tab helps out alot thnx bro

0 reply
*GeetarManiac* 51 May 07, 2010 01:29 PM

this tab is AMAZING...but...VERY confusing!
1)you need to lose the times that the parts are played in the song
2)distinguish the difference between the guitars (1 & 2) a little better

guest
You may want to rate the tab now too:
select rating
Wanna post a correction for this tab? Suggest correction