Oops, an error
Loading. Please wait.

Up Against The Ropes tab

version 1
version 1

Whole song

Interactive

4,437 views 1 this week
no commentswrite comment
1 2 3 4 5
2 more votes to show rating
add to favorites
×
Save as Personal and add changes to this tab that will be seen only by you. Learn more ›
×
You can save this tab as Personal to edit and correct it or add notes. All changes will be seen only by you. Learn more »
launch autoscroll
font size
0
reset
how to read this tab
guitar tuner
edit
Autoscroll
slow
fast
+/-
esc
set tempo
stop
-------------------------------------------------------------------------------
			     Up Against the Ropes - August Burns Red
-------------------------------------------------------------------------------
Tabbed by: headbanger703
Email: smeerios@yahoo.com

Tuning:Drop C (C G C F A D)

Great song, Great album, a pain to tab.
It's pretty much the whole song, but lacking a little at the end.

|----------------------------------------------------------------|
|----------------------------------------------------------------|
|---------------------------6------------------------------------|
|-------------7---------------7----------------------------------|\
|-5-7-----5-7---8-7---5-7-------8-7p8p7-4------------------------| \
|-----7-7-----------------7--------------------------------------|  \
								     \ X4
|----------------------------------------------------------------|  /
|----------------------------------------------------------------| / 
|---------------------------6-7-9-10-9-7-------------------------|/
|-------------7--------------------------7-----------------------|
|-5-7-----5-7---8-7---5-7----------------------------------------|
|-----7-7-----------------7--------------------------------------|

					On fourth time end with:
					|------------------------|
					|--------------10^-------|
					|-6-7-9-10-9-7-----------|
					|------------------------|
					|------------------------|
					|------------------------|

|----------------------------------------------------------------|
|----------------------------------------------------------------|
|----------------------------------------------------------------|
|----------------------------------------------------------------| X4
|-00000-0000000-0-000-0-00000-000000-0-0000----------------------|
|-00000-0000000-0-000-0-00000-000000-0-0000-7^-------------------|
  ***** ******* * *** * ***** ****** * **** 

|----------------------------------------------------------------|
|-----------------------------111111111111101010888555555666888--|
|-7777771010109996666666999777-----------------------------------|
|----------------------------------------------------------------| X2
|----------------------------------------------------------------|
|----------------------------------------------------------------|

|----------------------------------------------------------------|
|----------------------------------------------------------------|
|-7-7-10p9p7---6-6-9p7p6---------6-------------------------------|
|--------------------------7-8-5---------------------------------| X4
|----------------------------------------------------------------|
|----------------------------------------------------------------|

|----------------------------------------------------------------|
|----------------------------------------------------------------|
|----------------------------------------------------------------|
|-6-0-3-0-5-3---3-2-0-3-0-6-0-3-0-5-3---3-2-0-3-0-6-0-3-0-5-3----|
|-6-0-3-0-5-3---3-2-0-3-0-6-0-3-0-5-3---3-2-0-3-0-6-0-3-0-5-3----|
|-6-0-3-0-5-3---3-2-0-3-0-6-0-3-0-5-3---3-2-0-3-0-6-0-3-0-5-3----|
  * * * * * *   * * * * * * * * * * *   * * * * * * * * * * *
|----------------------------------------------------------------|
|----------------------------------------------------------------|
|----------------------------------------------------------------|
|-6~-6-0-3-0-00000—-00000-3-0-6~---------------------------------| X4
|-6~-6-0-3-0-00000--00000-3-0-6~---------------------------------|
|-6~-6-0-3-0-00000--00000-3-0-6~---------------------------------|
     * * * * *****  *****   *
|----------------------------------------------------------------|
|----------------------------------------------------------------|
|----------------------------------------------------------------|
|-----3-0-----3-0-----3-0-----3-0--------------------------------|
|-4-5-----4-5-----4-5-----4-5------------------------------------|
|----------------------------------------------------------------|


|----------------------------------------------------------------|
|----------------------------------------------------------------|
|----------------------------------------------------------------|
|-2-3-6-3--2-3-6-3--2-3-6-3--2-3-6-3-----------------------------|
|----------------------------------------------------------------|
|----------------------------------------------------------------|

|----------------------------------------------------------------|
|----------------------------------------------------------------|
|-1-2-5-2--1-2-5-2--1-2-5-2--1-2-5-2-----------------------------|
|----------------------------------------------------------------|
|----------------------------------------------------------------|
|----------------------------------------------------------------|

|----------------------------------------------------------------|
|-0-1-4-1--0-1-4-1--0-1-4-1--0-1-4-1-----------------------------|
|----------------------------------------------------------------|
|----------------------------------------------------------------| X4
|----------------------------------------------------------------|
|----------------------------------------------------------------|

|----------------------------------------------------------------|
|----------------------------------------------------------------|
|----------------------------------------------------------------|
|-----3------------------------------3---4-5-7-8-7---------------|
|-4-5----------------------5-4---4-5---0-----------5-------------|
|-------0-0-0-00000-0-0000---------------------------------------|

|----------------------------------------------------------------|
|----------------------------------------------------------------|
|-7-0-7--7-0-7-------------------7-0-7--7-0-7--------------------|
|-----------------7-7-6------------------------------------------|
|-----------------5-5-4-----------------------7p8p7----6p7p6-----|
|--------------0------------------------------------11-------9---|

|----------------------------------------------------------------|
|----------------------------------------------------------------|
|-----------6---6------------------------------------------------|
|-------5-7---8---8-7-5------------------------------------------|
|-5-7-8-----------------8-7--------------------------------------|
|----------------------------------------------------------------|

Feel free to e-mail me with any problems or suggestions.

| /  slide up
| \  slide down
| h  hammer-on
| p  pull-off
| ~  vibrato
| +  harmonic
| x  Mute note
===============================================================================

            
            
Suggest correction
Creating personal tab
Creating personal tab
You can edit any tab online and save it as your Personal.

You can edit, replace or remove any tab part or add personal notes – all changes will be seen only by you.

Personal tabs can be accessed anytime from any device, even offline.
Learn more »
Give kudos to tab author, rate the tab!
1 2 3 4 5
comments
print report bad tab
guest
You may want to rate the tab now too:
select rating
Wanna post a correction for this tab? Suggest correction