Oops, an error
Loading. Please wait.

White Washed tab

version 3
version 3

Whole song

89,730 views 54 this week
13 commentsread comments
1 2 3 4 5
x 32
add to favorites
×
Save as Personal and add changes to this tab that will be seen only by you. Learn more ›
×
You can save this tab as Personal to edit and correct it or add notes. All changes will be seen only by you. Learn more »
launch autoscroll
font size
0
reset
how to read this tab
guitar tuner
edit
Autoscroll
slow
fast
+/-
esc
set tempo
stop
[White Washed]
[Constellations]
[August Burns Red]

Watch the times, some things overlap.
See how many times each riff is played (No indication means 1)
Watch if each part has one guitar or two matching.
Symbols at bottum.

[Riff 1] - [00:00] - [00:56] - 2-|8x
- -13----13----13----------------|
- ----------17----17-15----------|
- ----14----------------14-------|
- -------------------------------|
- -------------------------------|
- -------------------------------|

----------------------------------------------------------------------------

[Riff 2] - [00:15] - [00:24]
- -----------------------------------|
- -----------------------------------|
- -----------------------------------|
- -0~----------------------------12\-|
- -0~----------------------------12\-|
- -0~----------------------------12\-|

----------------------------------------------------------------------------

[Riff 3] - [00:24] - [00:56]------------------------------------------------| 4x
- --------------------------------------------------------------------------|
- --------------------------------------------------------------------------|
- --------------------------------------------------------------------------|
- --------------------------------------------------------------------------|
- -0--0--0-000--0000--0--0-000--0--0--0--0-000--0000--0--0-1h4p1p0---[5b]---|
- -0--0--0-000--0000--0--0-000--0--0--0--0-000--0000--0--0---------0--------|
PM .......................................................         .

----------------------------------------------------------------------------

[Riff 4] - [00:40] - [00:56]---------| 2x
- -----------------------------------|
- -----------------------------------|
- -14------9-----7------3-----2------|
- -x-------x-----x------x-----x------|
- -12(28x)-7(4x)-5(12x)-1(8x)-0(8x)--|
- -----------------------------------|

----------------------------------------------------------------------------

[Riff 5] - [00:56] - [01:00]
- ---------------------------------|
- ---------------------------------|
- ---------------------------------|
- -0~----------------------///-----|
- -0~----------------------///-----|
- -0~----------------------///-----|

----------------------------------------------------------------------------

[Riff 6] - [01:00] - [01:19]
- ---------------------------------------------------9h12p9-----------------|
- -----------------------------------------------10---------10--------------|
- --------------------------14--------9h10p9-12----------------9------------|
- -------7---8---7/12--15--------15------------------------------11-7/11-14-|
- --------------------------------------------------------------------------|
- -0-0-0---0---0-----0----0----0----0-----------0--0------------------------|
PM .....   .   .     .    .    .    .           .  .

- --------------------------------------------------------------------------|
- ------------------------------------------------10------------------------|
- --------------------------14--------9h10p9-12--------10-----9-------------|
- -------7---8---7/12--15--------15-------------------------------11--------|
- ---------------------------------------------------------------------12---|
- -0-0-0---0---0-----0----0----0----0-----------0----0----0-0---0----0----0-|
PM .....   .   .     .    .    .    .           .    .    ...   .    .    .

- ---------------------------------------------------9h12p9-----------------|
- -----------------------------------------------10---------10--------------|
- --------------------------14--------9h10p9-12----------------9------------|
- -------7---8---7/12--15--------15------------------------------11-7/11-14-|
- --------------------------------------------------------------------------|
- -0-0-0---0---0-----0----0----0----0-----------0--0------------------------|
PM .....   .   .     .    .    .    .           .  .

- ------------------------------------------------------------------------|
- ------------------------------------------------10----------------------|
- --------------------------14--------9h10p9-12--------10-----------------|
- -------7---8---7/12--15--------15---------------------------8---7---3---|
- ------------------------------------------------------------8---7---3---|
- -0-0-0---0---0-----0----0----0----0-----------0----0----0-0-8---7---3---|
PM .....   .   .     .    .    .    .           .    .    ...

----------------------------------------------------------------------------

[Riff 7] - [01:19] - [01:31]------------------| 4x
- --------------------------------------------|
- --------------------------------------------|
- --------------------------------------------|
- -7---5h7---0---7---5h7---7h10---8---7---5h--|
- --------------------------------------------|
- ---0-----0---0---0-----0------0---0---0-----|
PM   .     .   .   .     .      .   .   .

from that last 5 hammer on to the beginning of the riff, the first 7.
thats where it repeats.

----------------------------------------------------------------------------

[Riff 8] - [01:31] - [01:39]---------------------------------| 2x
- -----------------------------------------------------------|
- -----------------------------------------------------------|
- -----------------------------------------------------------|
- -----------------------------------------------------------|
- -0-------00000---0-0-0-0-0---0-------00000---0-0-0-0-0000--|
- -0-------00000---0-0-0-0-0---0-------00000---0-0-0-0-0000--|
PM ........................................................

----------------------------------------------------------------------------

[Riff 9a] - [01:39] - [01:46]--------------------------------| 2x
- -----------------------------------------------------------|
- -----------------------------------------------------------|
- -----------------------------------------------------------|
- -----------------------------------------------------------|
- -5b------00000---0-0-0-0-0---5b------00000---0-0-0-0-0000--|
- ---------00000---0-0-0-0-0-----------00000---0-0-0-0-0000--|
PM ........................................................

[Riff 9b] - [01:42] - [01:46]
- ----------------------------------------------------------|
- ----------------------------------------------------------|
- ----------------------------------------------------------|
- ----------------------------------------------------------|
- -8b------00000---0-0-0-0-0---8b------00000---0-0-0-0-0000-|
- ---------00000---0-0-0-0-0-----------00000---0-0-0-0-0000-|
PM ........................................................

----------------------------------------------------------------------------

[Riff 10] - [01:46] - [01:51]
- ---------------------------------------------------------|
- ---------------------------------------------------------|
- ---------------------------------------------------------|
- -7\----3-----3-----5-----7-----------------///-----------|
- -5\----1-----3-----5-----7---7-7-7-7-7-7-7-///-----------|
- -------------3-----5-----7---7-7-7-7-7-7-7-///-----------|
PM                             .............

----------------------------------------------------------------------------

[Riff 11a] - [01:51] - [02:09]
- ---------------------------------------------------------------------|
- ---------------------------------------------------------------------|
- -7h10p7--------------------------------------------------------------|
- --------10---10---8-----10---8---7\--3-3---3---3---5-----7---8---7---|
- ---------------------------------------------------------------------|
- -----------0----0---8-8----8---8---------3---3---3---5-5---5---5---5-|
PM           .    .   ...    .   .         .   .   .   ...   .   .   .

- --------------------------------------------------------------------------|
- --------------------------------------------------------------------------|
- -7h10p7------------------------------10-10---12---10---12-12--14--12------|
- --------10---10---8-----10---8---7h8--------------------------------------|
- --------------------------------------------------------------------------|
- -----------0----0---8-8----8---7-----------8----8--8-8------10--10--10-10-|
PM           .    .   ...    .   .           .    .  . .      ..  ..  .....

- ---------------------------------------------------------------------|
- ---------------------------------------------------------------------|
- -7h10p7--------------------------------------------------------------|
- --------10---10---8-----10---8---7\--3-3---3---3---5-----7---8---7---|
- ---------------------------------------------------------------------|
- -----------0----0---8-8----8---8---------3---3---3---5-5---5---5---5-|
PM           .    .   ...    .   .         .   .   .   ...   .   .   .

- ------------------------------------------------------------------------|
- ------------------------------------------------------------------------|
- -7h10p7------------------------------10-10---12---10---9-9---10---9-----|
- --------10---10---8-----10---8---7h8------------------------------------|
- ------------------------------------------------------------------------|
- -----------0----0---8-8----8---7-----------8----8--8-8-----7----7---7-7-|
PM           .    .   ...    .   .           .    .  . .     .    .   ...

[Riff 11b] - [01:51] - [02:09]
- ---------------------------------------------------------------------|
- ---------------------------------------------------------------------|
- -7h10p7--------------------------------------------------------------|
- --------10---10---8-----10---8---7\--3-3---3---3---5-----7---8---7---|
- ---------------------------------------------------------------------|
- -----------0----0---8-8----8---8---------3---3---3---5-5---5---5---5-|
PM           .    .   ...    .   .         .   .   .   ...   .   .   .

- -----------------------------------------------------------------------|
- -----------------------------------------------------------------------|
- -7h10p7-------------------------------------9--------------------------|
- --------10---10---8-----10---8---7h8-12-12-----12---14-14--15--14------|
- -----------------------------------------------------------------------|
- -----------0----0---8-8----8---7----------8---8--8-8-----10--10--10-10-|
PM           .    .   ...    .   .          .   .  . .     ..  ..  .....

- ---------------------------------------------------------------------|
- ---------------------------------------------------------------------|
- -7h10p7--------------------------------------------------------------|
- --------10---10---8-----10---8---7\--3-3---3---3---5-----7---8---7---|
- ---------------------------------------------------------------------|
- -----------0----0---8-8----8---8---------3---3---3---5-5---5---5---5-|
PM           .    .   ...    .   .         .   .   .   ...   .   .   .

- -----------------------------------------------------------------------|
- -----------------------------------------------------------------------|
- -7h10p7-------------------------------------9--------------------------|
- --------10---10---8-----10---8---7h8-12-12-----12---11-11--12--11------|
- -----------------------------------------------------------------------|
- -----------0----0---8-8----8---7----------8---8--8-8-----10--10--10-10-|
PM           .    .   ...    .   .          .   .  . .     ..  ..  .....

----------------------------------------------------------------------------

[Riff 7] - [02:09] - [02:21] - 4x

----------------------------------------------------------------------------

[Riff 12, Guitar 1 & 2] - [02:21] - [02:30]
- -----------------------------------------------------------------|
- -----------------------------------------------------------------|
- -----------------------------------------------------------------|
- -----------------------------------------------------------------|
- -5---------------1-------0-----------------------3-------1-------|
- ---------------------------------0-------------------------------|
AP .........................................................
-
- -----------------------------------------------------------------|
- -------------------------------------------------5---6---8-------|
- -------------------------------------------------------------7---|
- -------------7---8-7-5---7-5-----------------7-------------------|
- -0---5---8-------------------8---0---5---8-----------------------|
- -----------------------------------------------------------------|
AP .............................................................


- -----------------------------------------------------------------|
- -----------------------------------------------------------------|
- -----------------------------------------------------------------|
- -----------------------------------------------------------------|
- -----------------3-------1---------------------------------------|
- -0-------------------------------3---------------5---------------|
AP .................................................
-
- -----------------------------------------------------------------|
- -----------------------------------------------------------------|
- -----------------------------------------------------------------|
- -------------7---8-7-5---7-5-----------------5-------7---5---8---|
- -0---5---8-------------------8---5---8---7-------8---------------|
- -----------------------------------------------------------------|
AP .............................................................

----------------------------------------------------------------------------

[Riff 13] - [02:30] - [02:48]---------------------------------------| 2x
- ------------------------------------------------------------------|
- -------------------------------------------------5---6---8--------|
- -------------------------------------------------------------7----|
- -------------7---8-7-5---7-5-----------------7--------------------|
- -0---5---8-------------------8---0---5---8------------------------|
- ------------------------------------------------------------------|
AP .............................................................

- -----------------------------------------------------------------|
- -----------------------------------------------------------------|
- -----------------------------------------------------------------|
- -------------7---8-7-5---7-5-----------------5-------7---5---8---|
- -0---5---8-------------------8---5---8---7-------8---------------|
- -----------------------------------------------------------------|
AP .............................................................

[Riff 14] - [02:30] - [02:40]
- ---------------------------------------------------------------|
- ---------------------------------------------------------------|
- ---------------------------------------------------------------|
- ---------------------------------------------------------------|
- -0-0-0-------0-0-8-8-8---7-7-7---0-0-0-----0---101010108---8-8-|
- -0-0-0-------0-0-8-8-8---7-7-7---0-0-0-----0---101010108---8-8-|
PM .............................................................

- ---------------------------------------------------------------|
- ---------------------------------------------------------------|
- ---------------------------------------------------------------|
- ---------------------------------------------------------------|
- -0-0-0-------0-0-8-8-8---7-7-7---3-3-3-----3---5-5-555-5-5-555-|
- -0-0-0-------0-0-8-8-8---7-7-7---3-3-3-----3---5-5-555-5-5-555-|
PM .............................................................

[Riff 15] - [02:40] - [02:48]
- -----------------------------------------------------------------|
- -----------------------------------------------------------------|
- -----------------------------------------------------------------|
- -----------------------------------------------------------------|
- -0000---------0008888----7777----0000--------0000101010108-8-8-8-|
- -0000---------0008888----7777----0000--------0000101010108-8-8-8-|
PM ...............................................................

- -----------------------------------------------------------------|
- -----------------------------------------------------------------|
- -----------------------------------------------------------------|
- -----------------------------------------------------------------|
- -0000---------0008888----7777----3333--------3-3-5-5-5-5-5-5-5-5-|
- -0000---------0008888----7777----3333--------3-3-5-5-5-5-5-5-5-5-|
PM ...............................................................

----------------------------------------------------------------------------

[Riff 2] - [02:48] - [03:02]

[Riff 16] - [02:53] - [03:02]
- -13h17p13----13----------13----13----13-----------|
- ----------17----17-15-------15----17----17--15----|
- ----------------------14-----------------------14-|
- --------------------------------------------------|
- --------------------------------------------------|
- --------------------------------------------------|

- -13----13----13----------13----13----13-----------|
- ----15----17----17-15-------------17----17-15-----|
- ----------------------14----14----------------14--|
- --------------------------------------------------|
- --------------------------------------------------|
- --------------------------------------------------|

----------------------------------------------------------------------------

[Riff 3] - [03:02] - [03:19] - 2x

[Riff 17] - [03:19] - [03:27]
- ----------------------------------------------------------------------|
- ----------------------------------------------------------------------|
- ----------------------------------------------------------------------|
- ----------------------------------------------------------------------|
- -0--0--0-000--0000--0--0-000--0--0--0--0-000--0000--0--0-1h4p1p0------|
- -0--0--0-000--0000--0--0-000--0--0--0--0-000--0000--0--0---------0-3b-|
PM .......................................................         .

[Riff 18] - [03:19] - [03:27]
- -13h17p13----13h17p13----13----------13----13----13----13----13----------|
- ----------17----------17----17-15-------------17----------17----17-15----|
- ----------------------------------14----14----------12----------------14-|
- -------------------------------------------------------------------------|
- -------------------------------------------------------------------------|
- -------------------------------------------------------------------------|

- -13----13----13----13----13----------13----13----13----13----13----------|
- ----------17----------17----17-15-------------17----------17----17-15----|
- ----14----------14----------------14----14----------14----------------14-|
- -------------------------------------------------------------------------|
- -------------------------------------------------------------------------|
- -------------------------------------------------------------------------|

[Riff 19] - [03:27] - [03:35]----| 8x
- -13----13----13----------------|
- ----------17----17-15----------|
- ----14----------------14-------|
- -------------------------------|
- -------------------------------|
- -------------------------------|

[Riff 20] - [03:27] - [03:35]
- -------------------------------------------------------------------------|
- -------------------------------------------------------------------------|
- -------------------------------------------------------------------------|
- -------------------------------------------------------------------12\---|
- -0--0--0-000--0000--0--0-000--0--0--0--0-000--0000--0--0-1h4p1p0---12\---|
- -0--0--0-000--0000--0--0-000--0--0--0--0-000--0000--0--0---------0-12\---|
PM .......................................................         .

----------------------------------------------------------------------------

[Riff 19] - [03:35] - [03:46] - 12x

[Riff 21] - [03:35] - [03:46]
- ---------|
- ---------|
- ---------|
- -0~------|
- -0~------|
- -0~------|

----------------------------------------------------------------------------

[Symbols]
PM... Palm Mute notes with (...) under them
h     Hammer On
p     Pull Off
\     Slide Down
/     Slide Up
AP... Alternate Pick notes with (...) under them
x     Dead Note
b     Bend
r     Release bend
///   Pick Slide
T     Right Finger Tap
~     let Ring
[ ]   Pinch Harmonic
( x)  Play riff x amount of times

:D

            
            
Suggest correction
Creating personal tab
Creating personal tab
You can edit any tab online and save it as your Personal.

You can edit, replace or remove any tab part or add personal notes – all changes will be seen only by you.

Personal tabs can be accessed anytime from any device, even offline.
Learn more »
comments
print report bad tab
13 comments total. Showing first comments.
+1 reply
dromtrund 10 May 23, 2010 03:20 AM

Judging from the new musicvideo for this song, this tab is the most accurate on UG
Good job:D

+2 reply
Roflpwn 202 Jun 02, 2010 06:08 AM

D|-13--17--13----13----------------|
A|------------17----17-15----------|
F|------------------------14-------|
C|---------------------------------|
G|---------------------------------|
C|---------------------------------|
Im pretty sure of this

+1 reply
theFallofLirby 480 Jun 29, 2010 12:08 PM

-13----13-12-13-12-10----
----10----------------10-
-------------------------
-------------------------
-------------------------
-------------------------

@Roflpwn, there's no 17 on D string, josh-josh-josh has the right notes, i just play it different. you don't have to move around as much.

guest
You may want to rate the tab now too:
select rating
Wanna post a correction for this tab? Suggest correction