Oops, an error
Loading. Please wait.

I Am A Cybernetic Organism Living Tissue Over Metal Endoskeleton guitar pro

version 1
version 1

Whole song

Interactive

6,335 views 1 this week
3 commentsread comments
1 2 3 4 5
x 5
add to favorites
guitar tuner
Autoscroll
slow
fast
+/-
esc
set tempo
stop
"I Am A Cybernetic Organism Living Tissue Over Metal Endoskeleton"
demo version
Play now

or get full version for Free

×
Get full version now!
Learn and play this song
in Tab Pro
Try for free

or get $10 off Welcome Bonus

Get welcome bonus
Get access to Tab Pro version of “I Am A Cybernetic Organism Living Tissue Over Metal Endoskeleton”!
Tab Pro is a premium guitar tab service, available on PC, Mac, iOS and Android
TRY FOR FREE
To download “I Am A Cybernetic Organism Living Tissue Over Metal Endoskeleton” Guitar Pro tab click button below
Please note that you must have Guitar Pro software installed on your
computer in order to view this file.
Suggest correction
comments
report bad tab
3 comments total.
0 reply
Legionator 10 Jan 20, 2010 07:28 PM

Sounds good.

0 reply
Jeffdecod 351 Sep 15, 2013 02:37 PM

The breakdown is bad here it is :

e--------------------------------------------------
A--------------------------------------------------
G---------------------------------7----------------
D--8--5p-----7---------5--8h--5p-----8--5p---------
A---------5-----5--5------------------------------- pm on this string
D--------------------------------------------------

e--------------------------------------------------
A--------------------------------------------------
G---------------------------------7----------------
D--8--5p-----7---------5--8h--5p-----8--5p---------
A---------0-----0--0------------------------------- pm on this string
D--------------------------------------------------

e--------------------------------------------------
A--------------------------------------------------
G--------------------------------------------------
D---------------------------------5----------------
A--6--3p-----5---------3--6h--3p-----6--3p---------
D---------0-----0--0------------------------------- pm on this string

0 reply
corrda00 807 Feb 17, 2014 08:35 PM

the bass plays 8th notes in the chorus.

guest
You may want to rate the tab now too:
select rating