Oops, an error
Loading. Please wait.

Get It Right bass

594 views 6 this week
no commentswrite comment
1 2 3 4 5
3 more votes to show rating
add to favorites
×
Save as Personal and add changes to this tab that will be seen only by you. Learn more ›
×
You can save this tab as Personal to edit and correct it or add notes. All changes will be seen only by you. Learn more »
launch autoscroll
font size
0
reset
guitar tuner
edit
Autoscroll
slow
fast
+/-
esc
set tempo
stop
Author
Difficulty
Get It Right
By Authority Zero

Hey guys, never done this before, but i figured it out after not being able to find a 
tab for this incredible bass line and couldn't justify not putting it up.

Intro
g[---12--10--10--9-]    [--9-7-555-]
d[-10--10--10--10--]    [-7-7-7----]
a[-----------------]    [----------]
E[-----------------] x2 [----------] x2

Verse
g[---12--10--9----12--10--9---9--7--5--9--7--555-]
d[-10-----------10-----------7--------7----------]
a[-----------------------------------------------]
E[-----------------------------------------------]

g[---12--10--9----12--10--9---9--7--5------------]
d[-10-----------10-----------7-----------777-9-10]
a[-----------------------------------------------]
E[-----------------------------------------------]

g[---12--10--9----12--10--9---9--7--5--9--7--555-]
d[-10-----------10-----------7--------7----------]
a[-----------------------------------------------]
E[-----------------------------------------------]

g[---12--10--9----12--10--9---9--7--5--9--7--555-]
d[-10-----------10-----------7--------7----------]
a[-----------------------------------------------]
E[-----------------------------------------------]

Pre-Chorus

g[-----------------------------------------------]
d[-----------------------------------------------]
a[-----------------------------------------------]
E[-1-1-0h1-0h1-1-1-1---3-3-0h3-0h3-3-3-3---------]

g[-----------------------------------------------]
d[-----------------------------------------------]
a[---------------------------9------/-----0------]
E[-1-1-0h1-0h1-1-1-1---3~~~----------------------]

Chorus

g[-------------------------------------------------------------------------]
d[----------22335320-------------------------------------------------------]
a[-3-3-3-3---------------------55332232--3-3-3-3--22337753-----------------]
E[--------------------3-3-3-3-------------------------------1-1-1-1-1-1-1-1]

g[-------------------------------------------------------------------------]
d[----------22335320-------------------------------------------------------]
a[-3-3-3-3---------------------55332232--3-3-3-3--22337753----------------3]
E[--------------------3-3-3-3-------------------------------1-1-1-1-1-1-1--]

Bridge/Solo

[---------------------------------------------------------|
[---------------------------------------------------------|
[-------------------3-3-0h3-0h3~-3-3-3--------------------|
[3-3-0h3-0h3~-3-3-3--------------------5-5-0h5-0h5~-5-5-5-|

[--------------------]
[--------------------]
[--------------------]
[--1-1-0h1-0h1~-1-1-1]

Outro

g[---12--10--10--9-]    [--9-7-555-]
d[-10--10--10--10--]    [-7-7-7----]
a[-----------------]    [----------]
E[-----------------] x2 [----------] x2

If you have suggestions comment below, id really appreciate it, like i said, this is my 
first tab. Heres a link for when to play what and such. Thanks!

http://www.youtube.com/watch?v=lyKVHQbJXhU

            
            
Suggest correction
Creating personal tab
Creating personal tab
You can edit any tab online and save it as your Personal.

You can edit, replace or remove any tab part or add personal notes – all changes will be seen only by you.

Personal tabs can be accessed anytime from any device, even offline.
Learn more »
Give kudos to tab author, rate the tab!
1 2 3 4 5
comments
print report bad tab
guest
You may want to rate the tab now too:
select rating
Wanna post a correction for this tab? Suggest correction