Oops, an error
Loading. Please wait.

Societys Sequence bass

version 1
version 1

Whole song

Interactive

131 views 1 this week
no commentswrite comment
1 2 3 4 5
3 more votes to show rating
add to favorites
×
Save as Personal and add changes to this tab that will be seen only by you. Learn more ›
×
You can save this tab as Personal to edit and correct it or add notes. All changes will be seen only by you. Learn more »
launch autoscroll
font size
0
reset
guitar tuner
edit
Autoscroll
slow
fast
+/-
esc
set tempo
stop
-------------------------------------------------------------------------------
			     Societys Sequence - Authority Zero
-------------------------------------------------------------------------------

Tabbed By : johnnythrasher5
e-mail: metalhead999@insightbb.com 

Tuning: standard (E,A,D,G)

this song is really easy and really repetitive, 
its only two bass lines the entire song. it had taken 
me about an hour to figure it out. but authority zero is awesome.                        

          
G|----------------------------------|---------------------------|
D|------------------------------(x4)|--------------------(x4)---|
A|-7--7-7p5-5-5--------3--3-3-------|---------------------------|
E|--------------5--5-5--------------|-0-0--0-0-0--3-3--3-3------|


G|----------------------------------|---------------------------|
D|------------------------------(x4)|--------------------(x4)---|
A|-7--7-7p5-5-5--------3--3-3-------|---------------------------|
E|--------------5--5-5--------------|-0-0--0-0-0--3-3--3-3------|

then the guitar plays.....

G|--------------------------|-----------------------------------|
D|----------------------(x4)|----------------------------(x4)---|
A|--------------------------|-7--7-7p5------------3--3-3--------|
E|-0-0--0-0-0--3-3--3-3-----|-0--------5-5-5--5-5---------------|

note: notice that the ending is 8 times not 4
G|--------------------------|----------------------|
D|--------------------(x8)--|----------------------|
A|--------------------------|----------------------|
E|-0-0--0-0-0--3-3--3-3-----|-0--------------------|




| /  slide up
| \  slide down
| h  hammer-on
| p  pull-off
| ~  vibrato
| +  harmonic
| x  Mute note
==========================================================================

            
            
Suggest correction
Creating personal tab
Creating personal tab
You can edit any tab online and save it as your Personal.

You can edit, replace or remove any tab part or add personal notes – all changes will be seen only by you.

Personal tabs can be accessed anytime from any device, even offline.
Learn more »
Give kudos to tab author, rate the tab!
1 2 3 4 5
comments
print report bad tab
guest
You may want to rate the tab now too:
select rating
Wanna post a correction for this tab? Suggest correction