Oops, an error
Loading. Please wait.

In The Grip Of Winter tab

version 1
version 1

Whole song

Interactive

by Autopsy
2,179 views 1 this week
2 commentsread comments
1 2 3 4 5
x 4
add to favorites
×
Save as Personal and add changes to this tab that will be seen only by you. Learn more ›
×
You can save this tab as Personal to edit and correct it or add notes. All changes will be seen only by you. Learn more »
launch autoscroll
font size
0
reset
how to read this tab
guitar tuner
edit
Autoscroll
slow
fast
+/-
esc
set tempo
stop
Author
Autopsy in the grip of winter

Tuning C F A# D# G C 
2 Whole steps down


INTRO    0:01   4 X
C |------------------------------------------------------------------------|
G |------------------------------------------------------------------------|
D#|------------------------------------------------------------------------|
A#|------------------------------------------------------------------------|
F |--------9/10-9------9/9-8------7/8-7----333333--------------------------|
C |---0-0--7/8--7----0-6/7-6----0-5/6-5----111111--------------------------|

CNTD     0:17   2 X
C |------------------------------------------------------------------------|
G |------------------------------------------------------------------------|
D#|------------------------------------------------------------------------|
A#|------------------------------------------------------------------------|
F |------------------------------------------------------------------------|
C |---0000--0-0-7b8r7-----0-6b7r6----0-5b6r5----111111---------------------|




        0:25   2 x
C |------------------------------------------------------------------------|
G |------------------------------------------------------------------------|
D#|------------------------------------------------------------------------|
A#|--------------9b10r9-----8b9r8-----7b8r7--------------------------------|
F |----------7-7---------7---------7---------888888------------------------|
C |------------------------------------------------------------------------|
               ^^^^^^^^^^^^^^^^^^^^^^^^^^^^^^^^^^^^^^^^^^^^
                    PLAYED TOGETHER AS A HARMONY (2 TIMES)
               \/\/\/\/\/\/\/\/\/\/\/\/\/\/\/\/\/\/\/\/\/\/
C |------------------------------------------------------------------------|
G |------------------------------------------------------------------------|
D#|--------------11b12r11-----10b11r10-----9b10r9--------------------------|
A#|----------9-9-----------9------------9---------101010101010-------------|
F |------------------------------------------------------------------------|
C |------------------------------------------------------------------------|



      0:34  HOLD UNTIL NEXT VERSE
C |------------------------------------------------------------------------|
G |------------------------------------------------------------------------|
D#|------------------------------------------------------------------------|
A#|---HOLD-----------------------------------------------------------------|
F |----2-------------------------------------------------------------------|
C |----0-------------------------------------------------------------------|


  VERSE  0:42    2 X
C |------------------------------------------------------------------------|
G |------------------------------------------------------------------------|
D#|------------------------------------------------------------------------|
A#|--HOLD------------------HOLD--------------HOLD-------------HOLD--2-3-2--|
F |---2----4---4---------5---4---4---4~----2---4---4---3---3----3---0-1-0--|
C |---0----2---2---2~----3---2---2---------0---2---2---1---1----1----------|
          PM  PM            PM  PM            PM  PM  PM  PM

  
 VOCALS BREAK   1:15
C |------------------------------------------------------------------------|
G |------------------------------------------------------------------------|
D#|------------------------------------------------------------------------|
A#|------------------------------------------------------------------------|
F |-------6-------7--------6--------7-------6---------7--------------------|
C |-------6-------5--------6--------5-------6---------5--------------------|

   CNTD          1:24
C |------------------------------------------------------------------------|
G |------------------------------------------------------------------------|
D#|------------------------------------------------------------------------|
A#|------------------------------------------------------------------------|
F |-----6--7-----6--7------------------------------------------------------|
C |-----6--5-----6--5------------------------------------------------------|




  BREAK      1:26    X 2
C |------------------------------------------------------------------------|
G |------------------------------------------------------------------------|
D#|------------------------------------------------------------------------|
A#|------------------------------------------------------------------------|
F |-----------8--7--6----8-7-6----------8--7--6----8-7-6-------------------|
C |-----------6--5--4----6-5-4----------6--5--4----6-5-4-------------------|


   FIRST SOLO RYTHM   1:32  X 2
C |------------------------------------------------------------------------|
G |------------------------------------------------------------------------|
D#|------------------------------------------------------------------------|
A#|------------------------------------------------------------------------|
F |------------------------------------------------------------------------|
C |-----------0-3-4-0---3H4-4-------0-3-4-0---3H4-4------------------------|

   CTND  1:39     X 2
C |------------------------------------------------------------------------|
G |------------------------------------------------------------------------|
D#|------------------------------------------------------------------------|
A#|------------------------------------------------------------------------|
F |-----------8--7--6----8-7-6----------8--7--6----8-7-6-------------------|
C |-----------6--5--4----6-5-4----------6--5--4----6-5-4-------------------|



    SECOND SOLO RYTHM  1:44
C |------------------------------------------------------------------------|
G |------------------------------------------------------------------------|
D#|------------------------------------------------------------------------|
A#|------------------------------------------------------------------------|
F |------------------------------------------------------------------------|
C |-----------0-3-4-0---3H4-4-------0-3-4-0---3H4-4------------------------|




  SOLO'S END 1:51    
C |------------------------------------------------------------------------|
G |------------------------------------------------------------------------|
D#|------------------------------------------------------------------------|
A#|------------------------------------------------------------------------|
F |---8--7--6----8-7-6-------8--7--6----8-7-6-------8--7--6----8-7-6-------|
C |---6--5--4----6-5-4-------6--5--4----6-5-4-------6--5--4----6-5-4-------|

   CTND      1:55
C |------------------------------------------------------------------------|
G |------------------------------------------------------------------------|
D#|------------------------------------------------------------------------|
A#|------------------------------------------------------------------------|
F |-----8--7--6--8-----7----6----1-----------------------------------------|
C |-----6--5--4--6-----5----4----1-----------------------------------------|




   SECOND VERSE    1:58      2 X
C |------------------------------------------------------------------------|
G |------------------------------------------------------------------------|
D#|------------------------------------------------------------------------|
A#|------------------------------------------------------------------------|
F |------------------------------------------------------------------------|
C |---0000--0-0-7b8r7-----0-6b7r6----0-5b6r5----111111---------------------|


   CTND    2:07   2 X    
C |------------------------------------------------------------------------|
G |------------------------------------------------------------------------|
D#|------------------------------------------------------------------------|
A#|--------------9b10r9-----8b9r8-----7b8r7--------------------------------|
F |----------7-7---------7---------7---------888888------------------------|
C |------------------------------------------------------------------------|
               ^^^^^^^^^^^^^^^^^^^^^^^^^^^^^^^^^^^^^^^^^^^^
                    PLAYED TOGETHER AS A HARMONY (2 TIMES)
               \/\/\/\/\/\/\/\/\/\/\/\/\/\/\/\/\/\/\/\/\/\/
C |------------------------------------------------------------------------|
G |------------------------------------------------------------------------|
D#|--------------11b12r11-----10b11r10-----9b10r9--------------------------|
A#|----------9-9-----------9------------9---------101010101010-------------|
F |------------------------------------------------------------------------|
C |------------------------------------------------------------------------|



  
  THIRD VERSE  2:15  -   3 X
C |------------------------------------------------------------------------|
G |------------------------------------------------------------------------|
D#|------------------------------------------------------------------------|
A#|------------------------------------------------------------------------|
F |--------9/10-9------9/9-8------7/8-7----333333--------------------------|
C |---0-0--7/8--7----0-6/7-6----0-5/6-5----111111--------------------------|

CTND    2:27
C |------------------------------------------------------------------------|
G |------------------------------------------------------------------------|
D#|------------------------------------------------------------------------|
A#|------------------------------------------------------------------------|
F |--------9/10-9------9/9-8------7/8-7--3--6--2-----3--6-2----------------|
C |---0-0--7/8--7----0-6/7-6----0-5/6-5--1--4--0-----1--4-0----------------|


  LEADING TO CLEAN PART  2:36
C |------------------------------------------------------------------------|
G |------------------------------------------------------------------------|
D#|------------------------------------------------------------------------|
A#|-----HOLD-HOLD-HOLD-----------------------------------------------------|
F |------3----6----7-------------------------------------------------------|
C |------1----4----5-------------------------------------------------------|





(This is played distorted NOT clean, just the guitar volume turned down)
 SECOND BREAK   2:46     3 x
C |------------------------------------------------------------------------|
G |------------------------------------------------------------------------|
D#|------------------------------------------------------------------------|
A#|---------RING--------------RING-----------------------------------------|
F |----0--3--4------0-3-4-3-4---0------------------------------------------|
C |------------------------------------------------------------------------|


CTND (Full Distortion)  3:16    4 X
CONTINUE AS SOLO RYTHM
C |------------------------------------------------------------------------|
G |------------------------------------------------------------------------|
D#|-------------------HOLD-------------------HOLD--------------------------|
A#|------------2---5---6--------2-5/6--5--4----2---------------------------|
F |------------0---3---4--------0-3/4--3--4----0---------------------------|
C |------------------------------------------------------------------------|




MAIN SOLO   3:17   SLIGHT WAH 
All vibrato is done w/ floyd rose tremolo, notes are pre-bent w/ fingers
Normally notes are done with floyd rose and harmonics. If you watch
live vids he doesnt use any harmonics

       DIVE
C |----21b--21b~~~21b~---(18)17b---17b~~~~--17(15)-17b---------------------|
G |----FULL-FULL--1.5--------1/4---1/4-------------FULL--16-17-------------|
D#|----BEND-BEND--BEND-------BEND--BEND------------BEND---------16b~~~~~~--|
A#|-------------------------------------------------------------HALF-------|
F |-------------------------------------------------------------BEND-------|
C |------------------------------------------------------------------------|

        3:30                     HEAVIER WAH USE
C |-------------------------5---------4------------------5-----------------|
G |----------------------------4---0-----3------2-----------4------2--3----|
D#|-----12b~~~~8b~~~~~---2-------------------4--------2---------4----------|
A#|-----HALF--HALF---------------------------------------------------------|
F |-----BEND--BEND---------------------------------------------------------|
C |------------------------------------------------------------------------|

      3:37                                           TRILL
C |---------------------DIVE-----17-15-17---/20~~~---17-20-----------------|
G |---17h18h20p18p17----20br~~~----------------------W/BAR-----------------|
D#|----------------(19)-FULL-----------------------------------------------|
A#|---------------------BEND-----------------------------------------------|
F |------------------------------------------------------------------------|
C |------------------------------------------------------------------------|

       3:46                         SLOW DIVE
C |---(20p19p17)-----------------------20b--------17b---17p15--------------|
G |-------------(20p19p17)-------------FULL-------FULL-------(15)----------|
D#|-----------------------(19p18p16)---BEND-------BEND-----------16b~~~~~~-|
A#|--------------------------------------------------------------HALF------|
F |--------------------------------------------------------------BAND------|
C |------------------------------------------------------------------------|



  3:59
C |------------------------------------------------------------------------|
G |------------------------------------------------------------------------|
D#|------------------------------------------------------------------------|
A#|------------------------------------------------------------------------|
F |---8--7--6----8-7-6---------8--7--6----8-7-6--------8--7--6----8-7-6----|
C |---6--5--4----6-5-4---------6--5--4----6-5-4--------6--5--4----6-5-4----|


  END  4:03
C |------------------------------------------------------------------------|
G |------------------------------------------------------------------------|
D#|------------------------------------------------------------------------|
A#|------------------------------------------------------------------------|
F |--8--7--6----8-----7-----6-----3----------2--2--------------------------|
C |--6--5--4----6-----5-----4-----1----------0--0--------------------------|
                                            PM  PM

            
            
Suggest correction
Creating personal tab
Creating personal tab
You can edit any tab online and save it as your Personal.

You can edit, replace or remove any tab part or add personal notes – all changes will be seen only by you.

Personal tabs can be accessed anytime from any device, even offline.
Learn more »
comments
print report bad tab
2 comments total.
0 reply
Jackson kv 1,173 Jun 22, 2010 12:09 AM

the part vocals break and ctnd is off its actually

1:15
|--------------------------------------|
|-----ALL-RING-------------------------|
|--------------------------------------|
|--1---------1---------1---------------|
|--1----2----1----2----1----2----------|
|-------0---------0---------0----------|

|--------------------------------------|
|--------------------------------------|
|--------------------------------------|
|---1----1-----------------------------|
|---1-2--1-2---------------------------|
|-----0----0---------------------------|

0 reply
Jackson kv 1,173 Jun 22, 2010 02:16 AM

Sorry i dont know how to delete the above correction

1:15
|--------------------------------------|
|-----ALL-RING-------------------------|
|--------------------------------------|
|--------------------------------------|
|--6----7-----6----7-----6----7--------|
|--6----5-----6----5-----6----5--------|

|--------------------------------------|
|--------------------------------------|
|--------------------------------------|
|--------------------------------------|
|---6-7---6-7--------------------------|
|---6-5---6-5--------------------------|

guest
You may want to rate the tab now too:
select rating
Wanna post a correction for this tab? Suggest correction