Oops, an error
Loading. Please wait.

Bloody Angel tab

version 2
version 2

Whole song

  • This is my first tab ever but im still proud.

Interactive

by Avatar
778 views 15 this week
2 commentsread comments
1 2 3 4 5
2 more votes to show rating
add to favorites
×
Save as Personal and add changes to this tab that will be seen only by you. Learn more ›
×
You can save this tab as Personal to edit and correct it or add notes. All changes will be seen only by you. Learn more »
launch autoscroll
font size
0
reset
how to read this tab
guitar tuner
edit
Autoscroll
slow
fast
+/-
esc
set tempo
stop
About this tab version
This is my first tab ever but im still proud. Was this info helpful? Yes No
Author/Artist : Avatar
Title : Bloody Angel
Album : Hail the Apocalypse
Release date : 2014
Produced by : Tobias Lindell

I don't know how to build up a song with chorus, bridge, solo etc.
I would appreciate if you would drop a comment in the description below so i can
improve this tab even more.
In chase not, here is a link to the music video so you might figure it out by yourself
where the verse and stuff is : https://www.youtube.com/watch?v=h71NBBbOjmw

-I recommend-
1. Listen to the song so you know how fast you should play and stuff.
2. A pedal where you can change from clean to distortion.
3. Practice one part at a time.



B |15----15-14-12----12-14-17----17-15-14----14----15----15-14-12----12-14-11----11----12----11----|
F#|---12----------12----------12----------12----12----12----------12----------12----12----12----12-|
D |------------------------------------------------------------------------------------------------| X2
A |------------------------------------------------------------------------------------------------|
E |------------------------------------------------------------------------------------------------|
B |------------------------------------------------------------------------------------------------|

B |---------------------------------------------------------------------------------12-11-12-14---|
F#|17----17-15-13----13----15----15-13-12----15----17----17-15-13----13-15-12----12---------------|
D |---12----------12----12----12----------12----12----12----------12----------11------------------|
A |-----------------------------------------------------------------------------------------------|
E |-----------------------------------------------------------------------------------------------|
B |-----------------------------------------------------------------------------------------------|

B |15----15-14-12----12-14-17----17-15-14----14----15----15-14-12----12-14-11----11----12----11----|
F#|---12----------12----------12----------12----12----12----------12----------12----12----12----12-|
D |------------------------------------------------------------------------------------------------|
A |------------------------------------------------------------------------------------------------|
E |------------------------------------------------------------------------------------------------|
B |------------------------------------------------------------------------------------------------|

B |15----15-14-12----12-14-17----17-15-14----14----15----15-14-12----12-14-|
F#|---12----------12----------12----------12----12----12----------12-------|
D |------------------------------------------------------------------------|
A |------------------------------------------------------------------------|
E |------------------------------------------------------------------------|
B |------------------------------------------------------------------------|

B |11--------11--------11--------11---Let this one ring----|
F#|-----12--------12--------11-----------------------------|
D |--------------------------------------------------------|
A |--------------------------------------------------------|
E |--------------------------------------------------------|
B |--------------------------------------------------------|

(Tone switch - Distortion)
B |--------------------------------------------------------------|
F#|--------------------------------------------------------------|
D |--------------------------------------------------------------| X2
A |---------------------------------------------4-4-4-4-4-4-4-4--|
E |10--10-9-7--7--10--10-9-7--7--10--10-9-7--7--6-6-6-6-6-6-6-6--|
B |----0-------0--0---0-------0--0---0-------0-------------------|

B |--------------------------------------------------------|
F#|--------------------------------------------------------|
D |--------------------------------------------------------| X2
A |---------------------------------------4-4-4-4-4-4-4-4--|
E |5--5-4-2--2--5--5-4-2--2--5--5-4-2--2--6-6-6-6-6-6-6-6--|
B |3--3-2-0--0--3--3-2-0--0--3--3-2-0--0-------------------|

   (Tone switch - Acoustic)
   How can i sleep?
B |---------------------|---------------------------------------------------------------------------|
F#|---------------------|---------------------------------------------------------------------------|
D |12----12-11-9----9---|12----12-11-9----9---12----12-11-9----9-11-12----12-11-9----9-11-12----9---|
A |----9----------9---9-|----9----------9---9-----9----------9----------9----------9----------9---9-|
E |---------------------|---------------------------------------------------------------------------|
B |---------------------|---------------------------------------------------------------------------|
PM .   . .  .  .  . . .  .   . .  .  .  . . . .   . .  .  .  . . .  .   . .  .  .  . . .  .   . . .

B |------------------------|
F#|------------------------|
D |12----12-11-9----9---11-|
A |----9----------9---9----|
E |------------------------|
B |------------------------|
PM .   . .  .  .  . . . .

   (Tone switch - Distortion)
B |--------------------------------------------------------|
F#|--------------------------------------------------------|
D |--------------------------------------------------------| X2
A |---------------------------------------4-4-4-4-4-4-4-4--|
E |5--5-4-2--2--5--5-4-2--2--5--5-4-2--2--6-6-6-6-6-6-6-6--|
B |3--3-2-0--0--3--3-2-0--0--3--3-2-0--0-------------------|

   (Tone switch - Acoustic)
   When did it start?
B |---------------------|---------------------------------------------------------------------------|
F#|---------------------|---------------------------------------------------------------------------|
D |12----12-11-9----9---|12----12-11-9----9---12----12-11-9----9-11-12----12-11-9----9-11-12----9---|
A |----9----------9---9-|----9----------9---9-----9----------9----------9----------9----------9---9-|
E |---------------------|---------------------------------------------------------------------------|
B |---------------------|---------------------------------------------------------------------------|
PM .   . .  .  .  . . .  .   . .  .  .  . . . .   . .  .  .  . . .  .   . .  .  .  . . .  .   . . .

                            (Tone switch - Distortion)
B |------------------------|--------------------------|
F#|------------------------|--------------------------|
D |12----12-11-9----9---11-|--------------------------|
A |----9----------9---9----|-3------------------------|
E |------------------------|-2------------------------|
B |------------------------|--------------------------|
PM .   . .  .  .  . . . .       Let this one ring

   (Tone switch - Acoustic)
   Come bloody angel, break off your chains, and look what i found in the dirt
B |-----------------------------------------------------------------------------|
F#|--------------------10---10--------------------------------------------------|
D |12---12-11-9---9-11---------12-11---11---12---12-11-9---9-11-8---8---9---8---|
A |---9---------9---------9----------9----9----9---------9--------9---9---9---9-|
E |-----------------------------------------------------------------------------|
B |-----------------------------------------------------------------------------|

B |-------------------------------------------------------------------------|
F#|--------------------10---10----------------------------------------------|
D |12---12-11-9---9-11---------12-11---11---12---12-11-9---9-11-8-9-8-9-8---|
A |---9---------9---------9----------9----9----9---------9------------------|
E |-------------------------------------------------------------------------|
B |-------------------------------------------------------------------------|

   (Tone switch - Distortion)
B |--------------------------------------------------------|
F#|--------------------------------------------------------|
D |--------------------------------------------------------| X2
A |---------------------------------------4-4-4-4-4-4-4-4--|
E |5--5-4-2--2--5--5-4-2--2--5--5-4-2--2--6-6-6-6-6-6-6-6--|
B |3--3-2-0--0--3--3-2-0--0--3--3-2-0--0-------------------|

   (Tone switch - Acoustic)                             X5
   All but i known
B |---------------------|---------------------------------------------------------------------------|
F#|---------------------|---------------------------------------------------------------------------|
D |12----12-11-9----9---|12----12-11-9----9---12----12-11-9----9-11-12----12-11-9----9-11-12----9---|
A |----9----------9---9-|----9----------9---9-----9----------9----------9----------9----------9---9-|
E |---------------------|---------------------------------------------------------------------------|
B |---------------------|---------------------------------------------------------------------------|
PM .   . .  .  .  . . .  .   . .  .  .  . . . .   . .  .  .  . . .  .   . .  .  .  . . .  .   . . .

B |--------------------|
F#|--------------------|
D |12---12-11-9----9---|
A |---9----------9---9-|
E |--------------------|
B |--------------------|
PM .  . .  .  .  . . .

   (Tone switch - Distortion)      X2                            Let this one ring
B |--------------------------------------------------------|--------------------------|
F#|--------------------------------------------------------|--------------------------|
D |--------------------------------------------------------|--------------------------|
A |---------------------------------------4-4-4-4-4-4-4-4--|-1------------------------|
E |5--5-4-2--2--5--5-4-2--2--5--5-4-2--2--6-6-6-6-6-6-6-6--|-2------------------------|
B |3--3-2-0--0--3--3-2-0--0--3--3-2-0--0-------------------|--------------------------|

   (Tone switch - Acoustic)
   Come bloody angel, break off your chains, and look what i found in the dirt
B |-----------------------------------------------------------------------------|
F#|--------------------10---10--------------------------------------------------|
D |12---12-11-9---9-11---------12-11---11---12---12-11-9---9-11-8---8---9---8---| X2
A |---9---------9---------9----------9----9----9---------9--------9---9---9---9-|
E |-----------------------------------------------------------------------------|
B |-----------------------------------------------------------------------------|

B |---------------------------------------------------------------|
F#|------------------------------------------------------4---4-7--|
D |9---9-7-5---5---7---7-5-4---7---9---9-7-5---5-7-4---4---4------|
A |--5-------5---5---5-------5---5---5-------5-------5------------|
E |---------------------------------------------------------------|
B |---------------------------------------------------------------|

   Everybody turns to dust
B |---------------------------------------------------------------------|
F#|--------------------10---10------------------------------------------|
D |12---12-11-9---9-11---------12-11---11---12---12-11-9---9-11-8---8---|
A |---9---------9---------9----------9----9----9---------9--------9---9-|
E |---------------------------------------------------------------------|
B |---------------------------------------------------------------------|

   (Tone switch - Distortion)
   Everybody turns to dust
B |-------------------------------------------------------------------------------|
F#|-------------------------------------------------------------------------------|
D |9/12--11-----14---16---9-----11---12-------------------------------------------|
A |9/12--11-----14---16---9-----11---12-------------------------------------------|
E |7/10--9------12---14---7-----9----11---14-14-14-14-12-12-12--12--10-10-10-10-9-|
B |-------------------------------------------------------------------------------|
PM                                        .  .  .  .  .  .  .   .   .  .  .  .  .

   (Tone switch - Acoustic)
   The blood is on your hands
B |----------------------------------------------------------------|
F#|----------------------------------------------------------------|
D |----------------------------------------------------------------|
A |9---9---9---9---4---4---4---4---5---5---5---5---7---7---7---7---|
E |--7---7---7---7---2---2---2---2---3---3---3---3---5---5---5---5-|
B |----------------------------------------------------------------|

B |-------------------------------------------------------------|
F#|-------------------------------------------------------------|
D |-------------------------------------------------------------|
A |9---9---9---9---4---4---4---4---5---5---5---5---4---4---4----|
E |--7---7---7---7---2---2---2---2---3---3---3---3---2---2------|
B |-------------------------------------------------------------|

   (Tone switch - Distortion)
   The blood is on your hands
B |----------------------------------------------------------------|
F#|----------------------------------------------------------------|
D |----------------------------------------------------------------|
A |7-7-7-7-7-7-7-7-4-4-4-4-4-4-4-4-5-5-5-5-5-5-5-5-7-7-7-7-7-7-7-7-|
E |5-5-5-5-5-5-5-5-2-2-2-2-2-2-2-2-3-3-3-3-3-3-3-3-5-5-5-5-5-5-5-5-|
B |----------------------------------------------------------------|

B |-----------------------------------------------------------|
F#|-----------------------------------------------------------|
D |-----------------------------------------------------------|
A |7-7-7-7-7-7-7-7-4-4-4-4-4-4-4-4-5-5-5-5-5-5-5-5-4-4-4-4-4--|
E |5-5-5-5-5-5-5-5-2-2-2-2-2-2-2-2-3-3-3-3-3-3-3-3-2-2-2-2-2--|
B |-----------------------------------------------------------|

   Come bloody angel, break off your chains, and look what i found in the dirt
B |-----------------------------------------------------------------------------------------------------|
F#|-----------------------------------------------------------------------------------------------------|
D |-----------------------------------------------------------------------------------------------------| X2
A |-----------------------------------------------------------------------------------------------------|
E |10-----10--9--7-----7--9--12------12--10--9--6--------10-----10--9--7-----7--9--6--7--6--7--6--7--7--|
B |----0------------0------------10----------------3--2------0------------0-----------------------------|

   YEEEEAAAAAAH!!!!
B |--------------------------------------------------------|
F#|--------------------------------------------------------|
D |--------------------------------------------------------| X2
A |---------------------------------------4-4-4-4-4-4-4-4--|
E |---------------------------------------6-6-6-6-6-6-6-6--|
B |3--3-2-0--0--3--3-2-0--0--3--3-2-0--0-------------------|

   BLOODY ANGEL!!!
B |--------------------------------------------------------|
F#|--------------------------------------------------------|
D |--------------------------------------------------------| X2
A |---------------------------------------4-4-4-4-4-4-4-4--|
E |5--5-4-2--2--5--5-4-2--2--5--5-4-2--2--6-6-6-6-6-6-6-6--|
B |3--3-2-0--0--3--3-2-0--0--3--3-2-0--0-------------------|

   (Tone switch - Acoustic)
B |15----15-14-12----12-14-17----17-15-14----14----15----15-14-12----12-14-11----11----12----11----|
F#|---12----------12----------12----------12----12----12----------12----------12----12----12----12-|
D |------------------------------------------------------------------------------------------------|
A |------------------------------------------------------------------------------------------------|
E |------------------------------------------------------------------------------------------------|
B |------------------------------------------------------------------------------------------------|

B |15----15-14-12----12-14-17----17-15-14----14----15----15-14-12----12-14-|
F#|---12----------12----------12----------12----12----12----------12-------|
D |------------------------------------------------------------------------|
A |------------------------------------------------------------------------|
E |------------------------------------------------------------------------|
B |------------------------------------------------------------------------|

B |11--------11--------11--------11---Let this one fade out----|
F#|-----12--------12--------11---------------------------------|
D |------------------------------------------------------------|
A |------------------------------------------------------------|
E |------------------------------------------------------------|
B |------------------------------------------------------------|



************************************

 
| h  =  hammer down 
| p  =  pull off    
| /  =  slide down  
| \  =  slide up    
| ^  =  bend        
| PM =  Palm Mute   

************************************

            
            
Suggest correction
Creating personal tab
Creating personal tab
You can edit any tab online and save it as your Personal.

You can edit, replace or remove any tab part or add personal notes – all changes will be seen only by you.

Personal tabs can be accessed anytime from any device, even offline.
Learn more »
Give kudos to tab author, rate the tab!
1 2 3 4 5
comments
print report bad tab
2 comments total.
0 reply
osse313 68 Jun 02, 2017 09:59 AM

Awesome tab bro keep upp the Good work!!!

+1 reply
RyuuzakiKen 438 Jun 02, 2017 06:05 PM

Thank you my friend ^^

guest
You may want to rate the tab now too:
select rating
Wanna post a correction for this tab? Suggest correction