Oops, an error
Loading. Please wait.

Betrayed bass

version 2
version 2

Whole song

858 views 3 this week
1 commentread comment
1 2 3 4 5
x 3
add to favorites
×
Save as Personal and add changes to this tab that will be seen only by you. Learn more ›
×
You can save this tab as Personal to edit and correct it or add notes. All changes will be seen only by you. Learn more »
launch autoscroll
font size
0
reset
guitar tuner
backing track
0:00
0:00
edit
Autoscroll
slow
fast
+/-
esc
set tempo
stop
G|-------------------------------------------------------------------|
D|---------------------3---3/7\3-------2---5320------------3-2-------|
A|-----6---5---5-----3---3-------5---2---2-----4---------3-------5-3-|
D|-5-8---8---8-----3---------------2-----------------0-2-------3-----|

G|-------------------------------------------------------------------|
D|---------------------3---3/7\3-------2---5320------------3-2-------|
A|-----6---5---5-----3---3-------5---2---2-----4---------3-------5-3-|
D|-8-5---8---8-----3---------------2-----------------0-2-------3-----|

0:14
G|-----------------------------------------------------------------|
D|---------------------3-----------------------------------2-------|
A|---------------1---11--110-115-----------------------3-----3-----|
D|-0-----2---3---------------------5-----3---2-2-----22--22----2---|

0:21
G|-----------------------------------------------------------------|
D|---------------------3---7-5-3-----------------------------3-2---|
A|-----------------------------------------------------3---3-----3-|
D|-0-----2---3-3-----33--33--------5-----3---2-2-----22--2---------|

0:28
G|-----------------------------------------------------------------|
D|-----------------------------------------------------------------|
A|-5-8-r-3---3-3-1---3-1-0-----------5---------------3-------------|
D|-------------------------3-3-3-3-5---5-3---3-3-2-----2-0-0-0-0-0-|

G|---------------------------------------------------------------------|
D|---------------------------------------------------------------------|
A|-5-8-r-3---3-3-1---3-1-0-----------5---------------3-----------------|
D|-------------------------3---3---5---5-3---3-3-2-----2-0/12-12-12-12-|

0:43
G|-----------------------------------------------------------------|
D|-5-0-5-7--h8---/-7-\-3-3-------/-5-\-2-2---7---7-0---2---3---4---|
A|-----------------------------------------------------------------|
D|-----------------------------------------------------------------|

0:50
G|-----------------------------------------------------------------|
D|-5-0-5-7--h8---5/7-\-3-3-----5-7/5-\-2-2---7---7-0---2---3---4---|
A|-----------------------------------------------------------------|
D|-----------------------------------------------------------------|

0:58
G|-------------------------------------------------------------------|
D|-5-0-5-7---8---8-10-12-7-3-3---5-7/5-\-2-2---7---7-0---2---3---4---|
A|-------------------------------------------------------------------|
D|-----------------------------------------------------0---0---0---0-|
   1 2 3 4 1 2 3 4  1  2 3 4 1 2 3 4 1 2 3 4 1 2 3 4 1 2 3 4 1 2 3 4 

1:06
G|-----------------------------------------------------------------|
D|-5-0-5-7--h8---5/7-\-3-3-------/-5-\-2-2---7---7-0---2---3---4---|
A|-----------------------------------------------------------------|
D|-----------------------------------------------------------------|

1:12
G|-------------------------------------------------------------------|
D|-7-------------12-11-----------------------------------------------|
A|-------------------------------------------------------------------|
D|-----------7-8-----------------0-0-----------------------------0-0-|
   1 2 3 4 1 2 3 4  1  2 3 4 1 2 3 4 1 2 3 4 1 2 3 4 1 2 3 4 1 2 3 4 

1:20
G|-----------------------------------------------------------------|
D|-----------------------------------------------------------------|
A|-----------------------------------------------------------------|
D|-----------------------------0-0-----------------------------0-0-|

G|------------------------------------------------------------------|
D|------------------------------------------------------------------|
A|------------------------------------------------------------------|
D|---------2-------3-------7---------------7-/-19---7---------------|

1:34
G|-----------7---------------------------------7---------------------|
D|---------7---7-------3---3-3h5p3-----------7---7-------3--/7-5-3---|
A|-5-----8-------8-3-----3-----------5-----8-------8-3-3---3---------|
D|-------------------------------------------------------------------|

1:41
G|-----------7---------------------------------7---------------------|
D|---------7---7-------3---3-3h5p3-----------7---7-------------------|
A|-5-----8-------8-3-3---3-----------5-----8-------8-3-3-3-3-5-5-5-5-|
D|-------------------------------------------------------------------|

1:49
G|-----------------------------------------------------------------|
D|-5-0-5-7--h8---5/7-\-3-3-------/-5-\-2-2---7---7-0---2---3---4---|
A|-----------------------------------------------------------------|
D|-----------------------------------------------------------------|

G|-----------------------------------------------------------------|
D|-5-0-5-7--h8---5/7-\-3-3-----5-7/5-\-2-2---7---7-0-0-2-2-3-3-4-4-|
A|-----------------------------------------------------------------|
D|-----------------------------------------------------------------|

2:04
G|-----------------------------------------------------------------|
D|-----------------------3/7\3-------------5320--------------------|
A|-------------4h5-------------5---------------4-------------------|
D|-5---5---5-------3---3-----------2-2-2-----------0-0-2-2-3-3-4-4-|

2:11
G|-------------------------------------------------|
D|-----------------------3/7\3-------------5320----|
A|-------------4h5-----------------------------4---|
D|-5-5-5---5-0-----3---3-----------2-2-2-----------|

G|------------------------------------------------------------------|
D|------------------------------------------------------------------|
A|------------------------------------------------------------------|
D|-0-------2-------3-------7-------------/-19-----------------------|

2:22
G|-----------------------------------------------------------------|
D|---------------------3-----------------------------------5-2-----|
A|---------------1---11--115-110h1---------------------3-----------|
D|-0-----2---3---------------------5-----3---2-2-----22--2-----2---|

2:30
G|-----------------------------------------------------------------|
D|---------------------3--/7-5-3-----------------------------3-2---|
A|-----------------------------------------------------3---3-----3-|
D|-0-----2---3-3-----33--3---------5-----3---2-2-----22--2---------|

2:37
G|-----------------------------------------------------------------|
D|-----------------------------------------------------------------|
A|-5-8-r-3---3-3-1---3-1-0-----------5---------------3-------------|
D|-------------------------3-3-3-3-5---5-3---3-3-2-----2-0-0-0-0-0-|

G|---------------------------------------------------------------------|
D|---------------------------------------------------------------------|
A|-5-8-r-3---3-3-1---3-1-0-----------5---------------3-----------------|
D|-------------------------3---3---5---5-3---3-3-2-----2-0/12-12-12-12-|

2:52 2x speed
G|-----------------------------------------------------------------|
D|-----------------3-3-3-3-------------------------5-5-5-5---------|
A|---------0-0-0-0---------3-3-3-3---------3-3-3-3---------5-5-5-5-|
D|-0-0-0-0-------------------------3-3-3-3-------------------------|

G|-----------------------------------------------------------------|
D|-----------------7-7-7-7-------------------------8-8-8-8---------|
A|---------5-5-5-5---------7-7-7-7---------5-5-5-5---------8-8-8-8-|
D|-5-5-5-5-------------------------5-5-5-5-------------------------|

2:59
G|-----------------7-7-7-7-----------------0-0-0-0-9-9-9-9-5-5-5-5-|
D|-------------------------8-8-8-8-3-3-3-3-------------------------|
A|---------8-8-8-8-------------------------------------------------|
D|-7-7-7-7---------------------------------------------------------|

G|-----------------------------------------------------------------|
D|-----------------------------------------------------------------|
A|---------------------------------5---5---5---5---5---5---5---5---|
D|-0---0---0---0---0---0---0---0-----------------------------------|

3:06 Reg Tempo x4
G|-------------------------------------------------------------------|
D|o-----------------------------------------------------------------o|
A|o---------------------------------3-3-3-3-3-3---------------------o|
D|--5-5-5-5-5-5-5-5-3-3-3-3-3-3-3-3-------------0-2-3-0-0-0-0-0-0-0--|

3:36
G|-----------------------------------------------------------------|
D|-----------------------------------------------------------------|
A|-1-1-1-1-1-1-1-1-1-1-1-1-1-1-1-1-3-3-3-3-3-3-3-3-5-5---0---0-0-0-|
D|-----------------------------------------------------------------|

3:44
G|-----------------------------------------------------------------|
D|-----------------------------------------------------------------|
A|-5-------------0-5---5-------/-9-3---------------3---3-------3---|
D|-----------------------------------------------5-----------5---5-|
   1 2 3 4 1 2 3 4 1 2 3 4 1 2 3 4 1 2 3 4 1 2 3 4 1 2 3 4 1 2 3 4 

3:51
G|-------------------------------3-5-----5-5-------5-5-5-4-4-4-2---|
D|-----------------------------------------------------------------|
A|-5-------------0-5---5-----3-5-----------------------------------|
D|-----------------------------------------------------------------|
   1 2 3 4 1 2 3 4 1 2 3 4 1 2 3 4 1 2 3 4 1 2 3 4 1 2 3 4 1 2 3 4 

3:58
G|-----------------------------------------------------------------|
D|-----------------------------3-----------------------------------|
A|-1-------------1-3-------------3-5---------------9---9-7---7-5---|
D|-----------------------------------------------------------------|
   1 2 3 4 1 2 3 4 1 2 3 4 1 2 3 4 1 2 3 4 1 2 3 4 1 2 3 4 1 2 3 4 

4:06
G|-----------------------------------------------------------------|
D|-------------------------3---3-5---------------------------------|
A|-1---------------3---------3-----5---------------5-----7---7-9---|
D|-----------------------------------------------------------------|
   1 2 3 4 1 2 3 4 1 2 3 4 1 2 3 4 1 2 3 4 1 2 3 4 1 2 3 4 1 2 3 4 

4:13
G|-----------------------------------------------------------------------------|
D|-8-----------8-9-10------------10----10h12------------10h12-12-10-10h12-12---|
A|-----------8----------------10----10---------------------------------------3-|
D|-----------------------------------------------------------------------------|
   1 2 3 4 1 2 3 4 1  2 3 4 1 2  3  4  1  2 3 4 1 2 3 4 1  2  3  4  1  2  3  4 

G|---------------------------------|
D|---------------------------------|
A|-1-1-1-1-1-1-1-1-3-3-3-3-3-3-3-3-|
D|---------------------------------|

4:24
G|-------------------------------------------------------------------|
D|o-----------------------------------------------------------------o|
A|o-5-----------5---------------------------------------------------o|
D|----6-5-3-0-3---6-5-3-0-3-----8-\-3-3-3-3-3-3-3-3-3-3-3-3-3-3-3-3--|

4:39
G|-----------------------------------------------------------------|
D|-----------------------------------------------------------------|
A|---------------------------------1-1-1-1-1-1-1-1-1-1-1-1-1-1-1-1-|
D|-1-1-1-1-1-1-1-1-1-1-1-1-1-1-1-1---------------------------------|

G|-----------------------------------------------------------------|
D|-----------------------------------------------------------------|
A|-----------------------------------------------1-1-1-1-1-1-1-1-1-|
D|-3-3-3-3-3-3-3-3-3-3-3-3-3-3-3-3-1-1-1-1-1-1-1-------------------|

4:53
G|-----------------------------------------------------------------|
D|-----------------------------------------------------------------|
A|-0--00-0-0--00-0-0--00-0-0--00-0-1--11-1-1--11-1-1--11-1-1--11-1-|
D|-----------------------------------------------------------------|

G|-------------------------------------------------------------|
D|-------------------------------------------------------------|
A|-3--33-3-3--33-3-3--33-3-3--33-3-5~--------------------0-/3\-|
D|--------------------------------------6~---5~---3~---3-------|

5:08
G|-----------------------------------------------------------------|
D|-----------------------------------------------------------------|
A|-----------------------------------------------------------------|
D|-0-0-0-0-0-0-0-0-0-0-0-0-0-0-0-0-1-1-1-1-1-1-1-1-1-1-1-1-1-1-1-1-|

G|-----------------------------------------------------------------|
D|-----------------------------------------111-------------111-----|
A|---------555-------------555-------------------------------------|
D|-0-0-0-0-----0-0-0-0-0-0-----0-0-1-1-1-1-----1-1-1-1-1-1-----1-1-|

5:23
G|-----------------------------------------------------------------|
D|-----------------------------------------------------------------|
A|-----------------------------------------------------------------|
D|-3-------------------------------3-------------------------------|

5:30
G|-----------------------------------------------------------------------|
D|-----------------------------------------------------------------------|
A|-----------------------------------------------------------------------|
D|-3-----3---3-----3-----3---3---/-15-----15---15-----15-----15---15-----|

5:38
G|-----------------------------------------------------------------|
D|-----------------------------------------------------------------|
A|-5-----------5-------------------5-----------5-------------------|
D|---6-5-3-0-3---6-5-3-0-3-6---8-----6-5-3-0-3---6-5-3-0-3-1-1-1-1-|

5;46
G|-----------------------------------------------------------------|
D|---------------------3-----------------------------------2-------|
A|---------------1---11--115-110h1---------------------3-----3-----|
D|-0---0-2---3---------------------5-----3---2-2-----22--2-----2---|

5:53
G|-----------------------------------------------------------------|
D|---------------------3--/7-5-3-----------------------------3-2---|
A|-----------------------------------------------------3---3-----3-|
D|-0-----2---3-3-----33--3---------5---5-3---3-2-----22--2---------|

6:00 x4
G|-------------------------------------------------------------------|
D|o-----------------------------------------------------------------o|
A|o-5-8-r-3---3-3-1---3-1-0-----------5---------------3-------------o|
D|--------------------------3-3-3-3-5---5-3---3-3-2-----2-0-0-0-0-0--|

6:29
G|-----------------------------------------------------------------|
D|-----------------------------------------------------------------|
A|-5-----------5-------------------5-----------5-------------------|
D|---6-5-3-0-3---6-5-3-0-3-6---8-----6-5-3-0-3---6-5-3-0-3-8-8-8-8-|

G|-----------------------------------------------------------------|
D|-----------------------------------------------------------------|
A|-5-----------5-------------------5-----------5-------------------|
D|---6-5-3-0-3---6-5-3-0-3-8-8-8-8---6-5-3-0-3---6-5-3-0-3-8-8-8-8-|
Tabbed by Dave Vucko

            
            
Suggest correction
Creating personal tab
Creating personal tab
You can edit any tab online and save it as your Personal.

You can edit, replace or remove any tab part or add personal notes – all changes will be seen only by you.

Personal tabs can be accessed anytime from any device, even offline.
Learn more »
Give kudos to tab author, rate the tab!
1 2 3 4 5
comments
print report bad tab
1 comment total.
0 reply
Julia Heaven 680 May 01, 2014 11:18 PM

Wow good job!

guest
You may want to rate the tab now too:
select rating
Wanna post a correction for this tab? Suggest correction