Oops, an error
Loading. Please wait.

Brompton Cocktail bass

version 2
version 2

Whole song

6,076 views 1 this week
2 commentsread comments
1 2 3 4 5
x 4
add to favorites
×
Save as Personal and add changes to this tab that will be seen only by you. Learn more ›
×
You can save this tab as Personal to edit and correct it or add notes. All changes will be seen only by you. Learn more »
launch autoscroll
font size
0
reset
guitar tuner
edit
Autoscroll
slow
fast
+/-
esc
set tempo
stop
-------------------------------------------------------------------------------
			     "Brompton Cocktail" --- Avenged Sevenfold
-------------------------------------------------------------------------------

Tabbed By : [travis]






***December 28, 2009: R.I.P. Jimmy "The R.E.V." Sullivan. You will be missed.









Tuning: Drop D (D A D G)

Key: F Major (F G A Bb C D E F)

Legend:
h = hammer on
p = pull off
x = muted string
/ = slide up
\ = slide down
h/ = pick once and then slide
~ = vibrato / ring out

Intro: Play this twice. (2x)
G|-----------------------------------------------------------------------------------------|
D|-----------------------------------------------------------------------------------------|
A|-----------------------------------------------------------------------------------------|
D|-0--0-0-0-0--3h/8--8--7~--0-3-0-3h/12--0-8-0-7--0--0-0-0-0--3h/8--8-7~--0-3-0-3h/6--0-3~~|

+++++++++++++++++++++++++++++++++++++++
 "Out of time"
G|----------------------------|
D|----------------------------|
A|----------------------------| x2
D|-0----0----0--0----0---8~~~-|

+++++++++++++++++++++++++++++++++++++++
Verse 1:
"Doc I'm Dying..."
G|----------------------------|
D|----------------------------|
A|----------------------------| x4
D|-0----0----0--0----0---7~~~-|

+++++++++++++++++++++++++++++++++++++++
 Play this once. (x1)
G|---------------------------------------------------------------------------------------|
D|---------------------------------------------------------------------------------------|
A|----------------------------------------------------------------------------5--5--4--4-|
D|-0--0--0--8--0--0--7---0--0--0--5--0--0--7---0--0--0--5--5--3--3---0--0--0-------------|

+++++++++++++++++++++++++++++++++++++++
  Play these two bars once. (x1)
G|------------------------------------------------------------|\ /
D|-------------------------------------------------------------- / \
A|-------------------------------------------------------------- /  \ Play these together
D|-0-0-0-0-0-0--8---0-0-0-0--7----0-0-0-0-0-0--5---0-0-0-0--7--- /  / once in all.
                                                                /
G|-----------------------------------------------------|   ---- /
D|-----------------------------------------------------| ------ /
A|------------------------------------------5--5--4--4-|------- /
D|-0-0-0-0-0-0--5--5---3--3----0-0-0-0-0-0--------------------- /

+++++++++++++++++++++++++++++++++++++++
 "Cause I..."
G|------------------------------------------------------------| ____|
D|------------------------------------------------------------|     |
A|-5--------------5-7---------------7---------------------10--|     |
D|----0-0-0--0-0--------0-0-0--0-0----10---0-0-0--0-0--10-----|     |
                                                                    |  Play these
G|---------------------------------------------------------|        |= 3 parts
D|---------------------------------------------------------|        |  once in all.
A|-------------10-8---------------8---------------------10-|        |
D|-0-0-0--0-0---------0-0-0--0-0----10---0-0-0--0-0--10----|        |
                                                                    |
G|-------------------------------------|                            |
D|-------------------------------------|                            |
A|-------------10-8--------8-----------|                            |
D|-0-0-0--0-0---------0-0-----0--10-10-|  __________________________|

++++++++++++++++++++++++++++++++++++++
Chorus 1: Play this twice (2x):
  Use a wah wah pedal for this part. Slowly push the pedal up and down.
  Trust me, the wah wah pedal is being used in this part. Listen closely.
G|--------------------------------------------------------------------------|
D|--------------------------------------------------------------------------|
A|--------------------------------------------3---3--3--3--3----------------|
D|-0--0---12---12-12--10--10--10---10--10--0------------------5--5-5---5--5-|

++++++++++++++++++++++++++++++++++++++
Verse 2:
G|----------------------------|
D|----------------------------|
A|----------------------------| x4
D|-0----0----0--0----0---7~~~-|

+++++++++++++++++++++++++++++++++++++++
  Play this once. (x1)
G|---------------------------------------------------------------------------------------|
D|---------------------------------------------------------------------------------------|
A|----------------------------------------------------------------------------5--5--4--4-|
D|-0--0--0--8--0--0--7---0--0--0--5--0--0--7---0--0--0--5--5--3--3---0--0--0-------------|

+++++++++++++++++++++++++++++++++++++++
  Play these two bars once. (x1)
G|------------------------------------------------------------|\ /
D|-------------------------------------------------------------- / \
A|-------------------------------------------------------------- /  \ Play these together
D|-0-0-0-0-0-0--8---0-0-0-0--7----0-0-0-0-0-0--5---0-0-0-0--7--- /  / once in all.
                                                                /
G|-----------------------------------------------------|   ---- /
D|-----------------------------------------------------| ------ /
A|------------------------------------------5--5--4--4-|------- /
D|-0-0-0-0-0-0---5--5--3--3----0-0-0-0-0-0--------------------- /

+++++++++++++++++++++++++++++++++++++++
 "Cause I..."
G|------------------------------------------------------------| ____|
D|------------------------------------------------------------|     |
A|-5--------------5-7---------------7---------------------10--|     |
D|----0-0-0--0-0--------0-0-0--0-0----10---0-0-0--0-0--10-----|     |
                                                                    |  Play these
G|---------------------------------------------------------|        |= 3 parts
D|---------------------------------------------------------|        |  once in all.
A|-------------10-8---------------8---------------------10-|        |
D|-0-0-0--0-0---------0-0-0--0-0----10---0-0-0--0-0--10----|        |
                                                                    |
G|-------------------------------------|                            |
D|-------------------------------------|                            |
A|-------------10-8--------8-----------|                            |
D|-0-0-0--0-0---------0-0-----0--10-10-|  __________________________|


++++++++++++++++++++++++++++++++++++++++
Chorus 2: Play this twice (2x):
  Use a wah wah pedal for this part. Slowly push the pedal up and down.
  Trust me, the wah wah pedal is being used in this part. Listen closely.
G|--------------------------------------------------------------------------|
D|--------------------------------------------------------------------------|
A|--------------------------------------------3---3--3--3--3----------------|
D|-0--0---12---12-12--10--10--10---10--10--0------------------5--5-5---5--5-|

++++++++++++++++++++++++++++++++++++++++
2nd Part of Chorus 2: Play both parts once in all.
G|----------------------------------------------------------------------------------|
D|----------------------------------------------------------------------------------|
A|----------------------------------------------------------------------------------|
D|-12-12-12-12-12-12-12--10-10-10-10-10-10-10-10--3-3-3-3-3-3-3-3--3h/5-5-5-5-5-5-0-|

  "And leave how I arrived, So alive."
G|------------------------------------------------------------------------------|
D|------------------------------------------------------------------------------|
A|------------------------------------------------------------------------------|
D|-12-12-12-12-12-12-12--10-10-10-10-10-10-10--3-3-3-3-3-3-3-3--5-5-5-5-5-5-5-5-|

++++++++++++++++++++++++++++++++++++++++
Interlude:
G|----------------------------------------------------|
D|----------------------------------------------------| x2
A|-/8-7-----8-7-----7---7-8\-5-3-----5-3-----3---3-5/-|
D|------0-0-----0-0---0----------2-2-----2-2---2------|

Then play this:
G|-----------------------------------------------------------|
D|-----------------------------------------------------------|
A|-/12-10-----12-10-----10---10-12\-10-8-----10-8-----8---8\-|
D|--------8-8-------8-8----8-------------6-6------6-6---6----|

Now play both of those bars twice in all.
+++++++++++++++++++++++++++++++++++++++++
Pre solo:
G|----------------------------------------------------|
D|----------------------------------------------------|
A|----------------------------------------------------|
D|-0---2---(2)/8---5---7\3----5----0---14\11--11---12-|

+++++++++++++++++++++++++++++++++++++++++
Solo:
G|----------------------------------------------------|
D|----------------------------------------------------|
A|----------------------------------------------------|
D|-0---2---(2)/8---5---7\3----5----0---14\11--11---12-|

+++++++++++++++++++++++++++++++++++++++++
 "Cause I..."
G|------------------------------------------------------------| ____|
D|------------------------------------------------------------|     |
A|-5--------------5-7---------------7---------------------10--|     |
D|----0-0-0--0-0--------0-0-0--0-0----10---0-0-0--0-0--10-----|     |
                                                                    |  Play these
G|---------------------------------------------------------|        |= 3 parts
D|---------------------------------------------------------|        |  once in all.
A|-------------10-8---------------8---------------------10-|        |
D|-0-0-0--0-0---------0-0-0--0-0----10---0-0-0--0-0--10----|        |
                                                                    |
G|-------------------------------------|                            |
D|-------------------------------------|                            |
A|-------------10-8--------8-----------|                            |
D|-0-0-0--0-0---------0-0-----0--10-10-|  __________________________|

+++++++++++++++++++++++++++++++++++++++++
Chorus 2: Play this twice (2x):
  Use a wah wah pedal for this part. Slowly push the pedal up and down.
  Trust me, the wah wah pedal is being used in this part. Listen closely.
G|--------------------------------------------------------------------------|
D|--------------------------------------------------------------------------|
A|--------------------------------------------3---3--3--3--3----------------|
D|-0--0---12---12-12--10--10--10---10--10--0------------------5--5-5---5--5-|

++++++++++++++++++++++++++++++++++++++++
2nd Part of Chorus 2: Play both parts once in all. Also use the wah pedal the whole way.
G|----------------------------------------------------------------------------------|
D|----------------------------------------------------------------------------------|
A|----------------------------------------------------------------------------------|
D|-12-12-12-12-12-12-12--10-10-10-10-10-10-10-10--3-3-3-3-3-3-3-3--3h/5-5-5-5-5-5-0-|

  "And leave how I arrived, So alive."
G|------------------------------------------------------------------------------|
D|------------------------------------------------------------------------------|
A|------------------------------------------------------------------------------|
D|-12-12-12-12-12-12-12--10-10-10-10-10-10-10--3-3-3-3-3-3-3-3--5-5-5-5-5-5-5-5-|

++++++++++++++++++++++++++++++++++++++++
End:
G|----------------------------|
D|----------------------------| x2
A|----------------------------|
D|-0----0----0--0----0---8~~~-|

Then end with this.
G|-----|
D|-----|
A|-----|
D|--0--|

Please rate and comment this tab.
This is my first bass tab I'm posting.
[travis]

            
            
Suggest correction
Creating personal tab
Creating personal tab
You can edit any tab online and save it as your Personal.

You can edit, replace or remove any tab part or add personal notes – all changes will be seen only by you.

Personal tabs can be accessed anytime from any device, even offline.
Learn more »
comments
print report bad tab
2 comments total.
0 reply
ttodd2011 10 Jul 17, 2013 11:06 PM

Seems good I'll have to try it in the morning. Keep trying to make tabs.

0 reply
AnduNeedle 7,269 Jul 27, 2015 02:46 AM

Great tab man!

guest
You may want to rate the tab now too:
select rating
Wanna post a correction for this tab? Suggest correction