Oops, an error
Loading. Please wait.
We have Chord Pro version of Buried Alive.
It's the closest thing you can get to the original song and it has interactive parts. Check out the tab »
×
56,825 views 51 this week
11 commentsread comments
1 2 3 4 5
x 18
add to favorites
×
Save as Personal and add changes to this tab that will be seen only by you. Learn more ›
×
You can save this tab as Personal to edit and correct it or add notes. All changes will be seen only by you. Learn more »
launch autoscroll
font size
0
reset
guitar tuner
backing track
0:00
0:00
edit
Autoscroll
slow
fast
+/-
esc
set tempo
stop
Avenged Sevenfold - Buried Alive

Album: Nightmare
Bassist: Johnny Christ

Drop D Tuning. Enjoy.

[Intro]
Comes in with guitar
G|-------9~---7~~--------|
D|-7~~-10---------10-9-7-|
A|-----------------------|
D|-----------------------|

G|-------9~---7~~-9-10-9~|
D|-7~~-10----------------|
A|-----------------------|
D|-----------------------|

G|-----------7~-------7~---|
D|-7~-9~-10~----7~-9~---10~|  Play this part twice.
A|-------------------------|  <-----
D|-------------------------|

G|-------------------------|
D|-7~~-5~~-3~~-7~~-5~~-3~~-|
A|-------------------------|
D|-------------------------|

[Verse] x8

G|-------------------------------------------|
D|-------------------------------------------|
A|0-00-2-3~-3-5-7~--8~-8-8-10-8--7-7-7-5-3-2-|
D|-------------------------------------------|

[Pre-Chorus] x2

G|-----------------------------------|
D|-3-3-3-5-3-2--2-2-2-3-2----4-3-2-0-|
A|------------------------3~---------|
D|-----------------------------------|

[Chorus] x2

G|-------------------------------------------------------|
D|-------------------------------------------------------|
A|-----------------------------------------------7-5-8-7-|
D|7~77-2-3~-333-666-7-99--7~77-2-3~-333-666-7-99---------|

[Chorus] Ending

G|---------------|
D|---------------|
A|-7~-7~-7-5-8-7-|
D|---------------|

[Verse] x6
[Pre-Chorus] x2
[Chorus] x2
[Chorus Ending] x2

[1st Solo]

G|---------------------------------|
D|---------------------------------| Play this part 4 times
A|000000223333333888888888-7-5-8-7-| <-----
D|---------------------------------|

G|---------------------------------|
D|---------------------------------| This Part is played twice.
A|---------------------------------| <-----
D|-7-7-7-2-3-3-3-2-7-7-7-2-3-3-3-2-|

G|------------------------------------|
D|------------------------7-5-8-7-----|
A|--------------------------------0~~-|
D|-6666-5555-4444-3333-0~-------------|

[Verse 3] (You will get the Ryhtym by ear) 

G|--------------------------------|
D|--------------------------------| Play this part four times
A|--------------------------------| <-----
D|2222222222222222222-555-444-333-|

G|-----------------------------------------|
D|-----------------------------------------|
A|00-22-33--222-33-55--00-22-33--222-33-55-|
D|-----------------------------------------|

G|--------------------------------|
D|--------------------------------| Play this part twice
A|--------------------------------| <-----
D|2222222222222222222-555-444-333-|

G|-----------------------------------------|
D|-----------------------------------------|
A|00-22-33--222-33-55--00-22-33--222-33-55-|
D|-----------------------------------------|

During 2nd Solo

G|--------------------|
D|--------------------| 
A|--------------------|
D|2222222222222222222-|

[Outro]

G|------------------------------------------|
D|------------------------------------------| Play this Part 4 times
A|------------------------------------------| <-----
D|-2--5-4--3-2-222-222--2--5-4--3-2-222-222-|

G|---------------------------------|
D|---------------------------------|
A|---------------------------------|
D|-2--5-4--3-2-222-222-2--5-4--3-2-|

Thats it!


************************************

| ~  Vibrato  

************************************

            
            
Suggest correction
Creating personal tab
Creating personal tab
You can edit any tab online and save it as your Personal.

You can edit, replace or remove any tab part or add personal notes – all changes will be seen only by you.

Personal tabs can be accessed anytime from any device, even offline.
Learn more »
comments
print report bad tab
11 comments total. Showing first comments.
+1 reply
DawnOfDecadence 10 Jul 20, 2010 02:21 PM

some bits need improving but you're the only one to tab it for bass so good job

+1 reply
GreenDaysBasser 52 Jul 29, 2010 04:24 PM

yeah, what he said, good job buddy.

+1 reply
Ragin_Asian 98 Jul 29, 2010 08:38 PM

during the 1st solo on the second part sounds like chugging to me (i could be wrong)

D|-777-777-777-222-333-333-333-666-777-777-777-222-322-322-333-666-|

the rest of it is superb good sir :p

guest
You may want to rate the tab now too:
select rating
Wanna post a correction for this tab? Suggest correction