Oops, an error
Loading. Please wait.
We have Chord Pro version of Buried Alive.
It's the closest thing you can get to the original song and it has interactive parts. Check out the tab »
×
72,209 views 18 this week
no commentswrite comment
1 2 3 4 5
x 3
add to favorites
×
Save as Personal and add changes to this tab that will be seen only by you. Learn more ›
×
You can save this tab as Personal to edit and correct it or add notes. All changes will be seen only by you. Learn more »
launch autoscroll
font size
0
reset
how to read this tab
guitar tuner
backing track
0:00
0:00
edit
Autoscroll
slow
fast
+/-
esc
set tempo
stop
----------------------------------------------------------------------------
                 Buried Alive - Avenged Sevenfold
----------------------------------------------------------------------------
Tabbed by: downfromthesky
Email: zekai_a7x@hotmail.com

Tuning: drop D.

Alright, so there's a ton of harmonies in this song that im really too lazy
 to tab but if you can play this you're probably good enough to figure them
 out on your own, i did some for you. And some of the solo's im not too
 sure about. But anyways, enjoy :)

[Intro]
e|----8--10p8---8------7---------------------------------------------------|
B|\10--10-----10-10--8---8-10-8\10----5---6p5---5-------5------------------|
G|----------------------------------7---7-----7-------5---4-7/-4h5p4-------|
D|------------------------------------------------------------------5------|
A|-0-----------------7--------------5-------------3-2-0--------------------|
D|-------------------------------------------------------------------------|

e|----8----10p8----8------7------------------------------------------------|
B|-10---10------10---10-8---8-10-8\10---5---6p5--------8-10--9h10p9p7h9----|
G|------------------------------------7---7-----7-9-10---------------------|
D|-------------------------------------------------------------------------|
A|-0--------------------7-------------5---------5-7--8-------7-------------|
D|-------------------------------------------------------------------------|

e|-------------------------------------------------------------------------|
B|-/10-8-10--------------/10-8-10----------/10-8-10--------------7-8-7--5--|
G|----------/7-5-7-5--------------/7-5p7-5----------/7-5-7-5------------5--|
D|-------------------7-5-------------------------------------7-5-----------|
A|-------------------------------------------------------------------------|
D|-------------------------------------------------------------------------|

e|-------------------------------------------------------------------------|
B|-----5-------------------------------------------------------------------|
G|-5-----5-----------------------------------------------------------------|
D|---5-----5---------------------------------------------------------------|
A|-------------------------------------------------------------------------|
D|-------------------------------------------------------------------------|

e|------------[24]-------------[24]----------------------------------------|
B|-------------------------------------------------------------------------|
G|-/5-4-9-9--------/5-4-9-9------------------------------------------------|
D|----------7---------------7------[19]------------------------------------|
A|-------------------------------------------------------------------------|
D|-------------------------------------------------------------------------|

end of intro
e|-------------------------------------------------------------------------|
B|-10-10-10-12-8/5-5-5-6-5-3-1/5~~--10-10-10-12-8/5-5-5-6-6-8-10-9-9-10-12-|
G|-------------------------------------------------------------------------|
D|-------------------------------------------------------------------------|
A|-------------------------------------------------------------------------|
D|-------------------------------------------------------------------------|

e|-------12-10-12----12-10-12-13-12-10----12/7------12-10-12----12-10-12---|
B|-10-10----------13-------------------13-----10-10----------13------------|
G|-------------------------------------------------------------------------|
D|-------------------------------------------------------------------------|
A|-------------------------------------------------------------------------|
D|-------------------------------------------------------------------------|

e|-13-15---------------12-10-----------------------------------------------|
B|---------15b(17)r15-------13-12-10-9-10~~--------------------------------|
G|-------x-----------------------------------------------------------------|
D|------x------------------------------------------------------------------|
A|-------------------------------------------------------------------------|
D|-------------------------------------------------------------------------|

[Verse]

Take the time just to listen
Am                    C 

When the voices screaming are much too loud.
F                             E7

Take a look in the distance
Am                 C

Try and see it all.
F              E7

Chances are that ya might find
Am                  C   

That we share a common discomfort now.
F                         E7

I feel I'm walking a fine line
Am                   C

Tell me only if it's real.
F                    E7

Pre chorus
e|-Guitar one--13~-12~-10~-7-8--10-12-13~-12~-10~-12~*---------------------|
B|-Guitar two--15~-13~-12~-8-10-12-13-15~-13~-12~-13~*---------------------|
G|-------------------------------------------------------------------------|
D|-------------------------------------------------------------------------|
A|-------------------------------------------------------------------------|
D|-------------------------------------------------------------------------|

[Chorus]
e|-------------------------------------------------------------------------|
B|-------------------------------------------------------------------------|
G|-2-2-2------------------------2-2-2-------------------------9--7--10--9--|
D|-2-2-2-2-3-33333-0-0-0-2-3-3--2-2-2-2-3-33333-0-0-0-2-3-3---9--7--10--9--|
A|-0-0-0-2-3-33333-2-2-2-3-5-5--0-0-0-2-3-33333-2-2-2-3-5-5---777555-888777|
D|-------2-3-33333--------------------2-3-33333----------------------------|
pm                                                             ** **  ** **

e|-------------------------------------------------------------------------|
B|-------------------------------------------------------------------------|
G|-2-2-2------------------------2-2-2--------------------------9-----------|
D|-2-2-2-2-3-33333-0-0-0-2-3-3--2-2-2-2-3-33333-0-0-0-2-3-3----9-----------|
A|-0-0-0-2-3-33333-2-2-2-3-5-5--0-0-0-2-3-33333-2-2-2-3-5-5--777-----------|
D|-------2-3-33333--------------------2-3-33333----------------------------|
pm                                                           **

e|-------------------------------------------------------------------------|
B|-------------------------------------------------------------------------|
G|-999----------9---7---10---9--2------------------------------------------|
D|-999----------9---7---10---9--2------------------------------------------|
A|-777--------777-555-88 8-777--0------------------------------------------|
D|-------------------------------------------------------------------------|
pm            **  **  **   **

[Post chorus]
e|-------------------------------------------------------------------------|
B|-10-10-10-12-8/5-5-5-6-5-3-1/5~~--10-10-10-12-8/5-5-5-6-6-8-10-9-9-10-12-|
G|-------------------------------------------------------------------------|
D|-------------------------------------------------------------------------|
A|-------------------------------------------------------------------------|
D|-------------------------------------------------------------------------|

e|-------------------------------------------------------------------------|
B|-10~~--------------------------------------------------------------------|
G|-------------------------------------------------------------------------|
D|-------------------------------------------------------------------------|
A|-------------------------------------------------------------------------|
D|-------------------------------------------------------------------------|

Verse again
pre chorus again
chorus again

at the end of the chorus instead of playing the A5 go to this:

e|-------------------------------------------------------------------------|
B|-------------------------------------------------------------------------|
G|-999---------999-----------9---7---10---9--------------------------------|
D|-999---------999-----------9---7---10---9--------------------------------|
A|-777---------777---------777-555-88-8-777--------------------------------|
D|-------------------------------------------------------------------------|

[pre solo] x2
again, one guitar on the high e, one on the B.
Im not really sure about this part though but whatever, sounds okay.
e|--8--8--8-10-12/3-3\5/1-1-4-4-5-7----------------------------------------|
B|-10-10-10-12-13-5-5-6-3-3-5-5-6-8----------------------------------------|
G|-------------------------------------do-this twice-----------------------|
D|-------------------------------------------------------------------------|
A|-------------------------------------------------------------------------|
D|-------------------------------------------------------------------------|

[Solo]
e|-17p12---17p12---17p12----17p12----17p12---12-15p12---15p12---15p12------|
B|------13------13-------13-------13-------13--------13------13------13----|
G|-------------------------------------------------------------------------|
D|-------------------------------------------------------------------------|
A|-------------------------------------------------------------------------|
D|-------------------------------------------------------------------------|

e|-15p12----15p12----12-17p13---17p13---17p13----17p13---17p13----13-------|
B|-------13-------13---------15------15-------15------15-------15----------|
G|-------------------------------------------------------------------------|
D|-------------------------------------------------------------------------|
A|-------------------------------------------------------------------------|
D|-------------------------------------------------------------------------|

e|-15p10----15p10----15p10----15p10----15p10----10--17p12----17p12---------|
B|-------12-------12-------12-------12-------12-----------13-------13------|
G|-------------------------------------------------------------------------|
D|-------------------------------------------------------------------------|
A|-------------------------------------------------------------------------|
D|-------------------------------------------------------------------------|

e|-17p12----17p12----17p12----12-15p12----15p12----15p12----15p12----------|
B|-------13-------13-------13----------13-------13-------13-------13-------|
G|-------------------------------------------------------------------------|
D|-------------------------------------------------------------------------|
A|-------------------------------------------------------------------------|
D|-------------------------------------------------------------------------|

e|-15p12----12-17p13----17p13----17p13----17p13----17p13----13-------------|
B|-------13----------15-------15-------15-------15-------15----------------|
G|-------------------------------------------------------------------------|
D|-------------------------------------------------------------------------|
A|-------------------------------------------------------------------------|
D|-------------------------------------------------------------------------|

e|-1617161516171615-19-20-19-15-------15-----------------------------------|
B|------------------------------17--17-------------------------------------|
G|--------------------------------17---------------------------------------|
D|-------------------------------------------------------------------------|
A|-------------------------------------------------------------------------|
D|-------------------------------------------------------------------------|

VERY fast tremelo
e|-----8-12/17---12/17-16-----8-12/17-19-20-19\11--------------------------|
B|-/10--------/13---------/10----------------------------------------------|
G|-------------------------------------------------------------------------|
D|-------------------------------------------------------------------------|
A|-------------------------------------------------------------------------|
D|-------------------------------------------------------------------------|

e|-17p12------12-19p12-17p12------12-19p12-17p12------12-19p12-------------|
B|------13--13--------------13--13--------------13--13---------------------|
G|--------14------------------14------------------14-----------------------|
D|-------------------------------------------------------------------------|
A|-------------------------------------------------------------------------|
D|-------------------------------------------------------------------------|

                        more tremelo
e|-16p12------12-16p12-----8-12/17\12-13-11-12-----------------------------|
B|------12--12----------10---------------------12-9-10~--------------------|
G|--------13---------------------------------------------------------------|
D|-------------------------------------------------------------------------|
A|-------------------------------------------------------------------------|
D|-------------------------------------------------------------------------|

can't seem to figure the part out after that, sorry.

huge sweeps at the end
e|-12p8------------8h13h8------------8-15b(17)~~~~r15////------------------|
B|-----10--------10------10--------10--------------------------------------|
G|-------9------9----------9------9----------------------------------------|
D|--------10--10------------10--10-----------------------------------------|
A|----------12----------------12-------------------------------------------|
D|-------------------------------------------------------------------------|

in between the solos
e|-------------------------------------------------------------------------|
B|-------------------------------------------------------------------------|
G|-------------------------------------------------------------------------|
D|-2----2----2---2----2----2---2----2----2---2----2----2-------------------|
A|-2-22-2-22-2-2-2-22-2-22-2-2-2-22-2-22-2-2-2-22-2-22-2-2-----------------|
D|-2-22-2-22-2-2-2-22-2-22-2-2-2-22-2-22-2-2-2-22-2-22-2-2-----------------|
pm   **   **   *   **   **   *   **   **   *   **   **   *

e|-------------------------------------------------------------------------|
B|-------------------------------------------------------------------------|
G|-------------------------------------------------------------------------|
D|-2----2----2---2----2----2---2----2----2-----------------do this three---|
A|-2-22-2-22-2-2-2-22-2-22-2-2-2-22-2-22-2-2--------------------times------|
D|-2-22-2-22-2-2-2-22-2-22-2-2-2-22-2-22-2-2-555-444-33--------------------|
pm   **   **   *   **   **   *   **   **   *              

e|-------------------------------------------------------------------------|
B|-------------------------------------------------------------------------|
G|-------------------------------------------------------------------------|
D|-------------------------------------------------------------------------|
A|-------------------------------------------------------------------------|
D|-666-777-99-777-999-1010-666-777-99-777-999-1010-------------------------|

e|-------------------------------------------------------------------------|
B|-------------------------------------------------------------------------|
G|-------------------------------------------------------------------------|
D|-2----2----2---2----2----2---2----2----2-----------------do this three---|
A|-2-22-2-22-2-2-2-22-2-22-2-2-2-22-2-22-2-2--------------------times------|
D|-2-22-2-22-2-2-2-22-2-22-2-2-2-22-2-22-2-2-555-444-33--------------------|
pm   **   **   *   **   **   *   **   **   *              

e|-------------------------------------------------------------------------|
B|-------------------------------------------------------------------------|
G|-------------------------------------------------------------------------|
D|-------------------------------------------------------------------------|
A|-------------------------------------------------------------------------|
D|-666-777-99-777-999-1010-666-777-99-777-999-1010-------------------------|

can't figure out this solo either :( sorry everyone!

[Outro]
e|-------------------------------------------------------------------------|
B|-------------------------------------------------------------------------|
G|-------------------------------------------------------------------------|
D|-2-5-4-3-2--------------2-5-4-3-2-------------2-5-4-3-2------------------|
A|-2-5-4-3-2--------------2-5-4-3-2-------------2-5-4-3-2------------------|
D|-2-5-4-3-2-222-222-222--2-5-4-3-2-222-222-222-2-5-4-3-2-222-222-222------|
pm           *** *** ***            *** *** ***           *** *** ***

e|-------------------------------------------------------------------------|
B|-------------------------------------------------------------------------|
G|-------------------------------------------------------------------------|
D|-2-5-4-3-2---------------------------------------------------------------|
A|-2-5-4-3-2---------------------------------------------------------------|
D|-2-5-4-3-2-222-222-222---------------------------------------------------|
pm           *** *** ***

guitar one
e|-------------------------------------------------------------------------|
B|-------------------------------------------------------------------------|
G|-------------------------------------------------------------------------|
D|-2-5-4-3-2--------------2-5-4-3-2----------------------------------------|
A|-2-5-4-3-2--------------2-5-4-3-2----------------------------------------|
D|-2-5-4-3-2-222222222222-2-5-4-3-2-222222222222---------------------------|
pm           ************           ************

guitar two
e|-------------------------------------------------------------------------|
B|-------------------------------------------------------------------------|
G|-------------------------------------------------------------------------|
D|-------------------------------------------------------------------------|
A|-------------------------------------------------------------------------|
D|-5-9-8-7-5-555555555555-5-9-8-7-5-555555555555---------------------------|
pm           ************           ************

guitar one
e|-------------------------------------------------------------------------|
B|-------------------------------------------------------------------------|
G|-------------------------------------------------------------------------|
D|-2-5-4-3-2--------------2-5-4-3-2----------------------------------------|
A|-2-5-4-3-2--------------2-5-4-3-2----------------------------------------|
D|-2-5-4-3-2-222222222222-2-5-4-3-2-222222222222---------------------------|
pm           ************           ************

guitar two
e|-------------------------------------------------------------------------|
B|-------------------------------------------------------------------------|
G|-------------------------------------------------------------------------|
D|-------------------------------------------------------------------------|
A|-------------------------------------------------------------------------|
D|-5-9-8-7-5-555555555555-5-9-8-7-5-555555555555---------------------------|
pm           ************           ************

guitar one
e|-------------------------------------------------------------------------|
B|-------------------------------------------------------------------------|
G|-------------------------------------------------------------------------|
D|-2-5-4-3-2-------------2-5-4-3-2-----------------------------------------|
A|-2-5-4-3-2-------------2-5-4-3-2-----------------------------------------|
D|-2-5-4-3-2-222-222-222-2-5-4-3-2-----------------------------------------|
pm           *** *** ***

guitar two
e|-------------------------------------------------------------------------|
B|-------------------------------------------------------------------------|
G|-------------------------------------------------------------------------|
D|-------------------------------------------------------------------------|
A|-------------------------------------------------------------------------|
D|-5-9-8-7-5-555-555-555-5-9-8-7-5-----------------------------------------|
pm           *** *** ***

that's it! it's not 100% because i got lazy, but there's no other tabs out
 yet so i thought i'd tab it for you guys. :)


************************************

| p    Pull-off
| \    Slide down
| h    Hammer-on
| /    Slide up
| [n]  Artificial harmonic (Pinch harmonic)
| ~    Vibrato
| x    Dead note   

************************************

            
            
Suggest correction
Creating personal tab
Creating personal tab
You can edit any tab online and save it as your Personal.

You can edit, replace or remove any tab part or add personal notes – all changes will be seen only by you.

Personal tabs can be accessed anytime from any device, even offline.
Learn more »
Give kudos to tab author, rate the tab!
1 2 3 4 5
comments
print report bad tab
guest
You may want to rate the tab now too:
select rating
Wanna post a correction for this tab? Suggest correction