Oops, an error
Loading. Please wait.
We have Chord Pro version of Dear God.
It's the closest thing you can get to the original song and it has interactive parts. Check out the tab »
×
59,053 views 15 this week
4 commentsread comments
1 2 3 4 5
x 7
add to favorites
×
Save as Personal and add changes to this tab that will be seen only by you. Learn more ›
×
You can save this tab as Personal to edit and correct it or add notes. All changes will be seen only by you. Learn more »
launch autoscroll
font size
0
reset
guitar tuner
backing track
0:00
0:00
edit
Autoscroll
slow
fast
+/-
esc
set tempo
stop
Band: Avenged Sevenfold
Song: Dear God

     Q    Q    Q    Q       Q    Q    Q    Q       Q    Q    Q    Q
G|----------------------|----------------------|----------------------|
D|--3----3----3----3----|--2----2----2----2----|--0----0----0----0----|
A|----------------------|----------------------|----------------------|
D|----------------------|----------------------|----------------------|

   Q    Q    Q    Q       Q    Q    Q    Q       Q    Q    Q    Q
G|----------------------|----------------------|----------------------|
D|----------------------|----------------------|----------------------|
A|--3----3----3----3----|--1----1----1----1----|--0----0----0----0----|
D|----------------------|----------------------|----------------------|

    E  E  E  E  E  E  E    E     E  E  E  E  E  E  E  E     Q    Q    Q    Q
G|-----------------0----------|-----------------------0--|----------------------|
D|-----------0--3-----3br--2--|--0-----------------2-----|--3----3----3----3----|
A|-----0--3-------------------|-----3--2--0--2--3--------|----------------------|
D|--5-------------------------|--------------------------|----------------------|

    Q    Q    Q    Q       Q    Q    Q    Q       Q    Q    Q    Q
G|----------------------|----------------------|----------------------|
D|--2----2----2----2----|--0----0----0----0----|----------------------|
A|----------------------|----------------------|--3----3----3----3----|
D|----------------------|----------------------|----------------------|

    Q    Q    Q    Q       Q    Q    Q    Q       E  E  E  E  E  E  E    E
G|----------------------|----------------------|-----------------0----------|
D|----------------------|----------------------|-----------0--3-----3br--2--|
A|--1----1----1----1----|--0----0----0----0----|-----0--3-------------------|
D|----------------------|----------------------|--5-------------------------|

    E  E  E  E  E  E  E  E     Q    Q    Q    Q       Q    Q    Q    Q
G|-----------------------0--|----------------------|----------------------|
D|--0-----------------2-----|--3----3----3----3----|--2----2----2----2----|
A|-----3--2--0--2--3--------|----------------------|----------------------|
D|--------------------------|----------------------|----------------------|

    Q    Q    Q    Q       Q    Q    Q    Q       Q    Q    Q    Q
G|----------------------|----------------------|----------------------|
D|--0----0----0----0----|----------------------|----------------------|
A|----------------------|--3----3----3----3----|--1----1----1----1----|
D|----------------------|----------------------|----------------------|


    Q    Q    Q    Q       E  E  E  E  E  E  E    E     E  E  E  E  E  E  E  E
G|----------------------|-----------------0----------|-----------------------0--|
D|----------------------|-----------0--3-----3br--2--|--0-----------------2-----|
A|--0----0----0----0----|-----0--3-------------------|-----3--2--0--2--3--------|
D|----------------------|--5-------------------------|--------------------------|

    H        Q    Q       H        Q    Q       H        Q    Q
G|---------------------|--0--------0----0----|--2--------2----2----|
D|--3--------3----3----|---------------------|---------------------|
A|---------------------|---------------------|---------------------|
D|---------------------|---------------------|---------------------|

    H        Q    Q       H        Q    Q       H        Q    Q
G|---------------------|---------------------|---------------------|
D|--3--------3----3----|--2--------2----2----|--0--------0----0----|
A|---------------------|---------------------|---------------------|
D|---------------------|---------------------|---------------------|

    H        Q    Q       E  E  E  E  E  E  E  E     H        Q    Q
G|---------------------|-----------------------0--|---------------------|
D|--2--------2----2----|--0-----------------2-----|--3--------3----3----|
A|---------------------|-----3--2--0--2--3--------|---------------------|
D|---------------------|--------------------------|---------------------|


    H        Q    Q       H        Q    Q       H        Q    Q
G|--0--------0----0----|--2--------2----2----|---------------------|
D|---------------------|---------------------|--3--------3----3----|
A|---------------------|---------------------|---------------------|
D|---------------------|---------------------|---------------------|

    H        Q    Q       H        Q    Q       H        Q    Q
G|---------------------|---------------------|---------------------|
D|--2--------2----2----|--0--------0----0----|--2--------2----2----|
A|---------------------|---------------------|---------------------|
D|---------------------|---------------------|---------------------|

    E  E  E  E  E  E  E  E     H        Q    Q       H        Q    Q
G|-----------------------0--|---------------------|---------------------|
D|--0-----------------2-----|--3--------3----3----|--2--------2----2----|
A|-----3--2--0--2--3--------|---------------------|---------------------|
D|--------------------------|---------------------|---------------------|

    H        Q    Q       H        H           W
G|---------------------|--------------------|-------------------|
D|--0--------0----0----|--3--------2--------|--0----------------|
A|---------------------|--------------------|-------------------|
D|---------------------|--------------------|-------------------|

    W                   Q    Q    Q    Q       Q    Q    Q    Q
G|-------------------|----------------------|----------------------|
D|--0----------------|--3----3----3----3----|--2----2----2----2----|
A|-------------------|----------------------|----------------------|
D|-------------------|----------------------|----------------------|

    Q    Q    Q    Q       Q    Q    Q    Q       Q    Q    Q    Q
G|----------------------|----------------------|----------------------|
D|--0----0----0----0----|----------------------|----------------------|
A|----------------------|--3----3----3----3----|--1----1----1----1----|
D|----------------------|----------------------|----------------------|

    Q    Q    Q    Q       E  E  E  E  E  E  E    E     E  E  E  E  E  E  E  E
G|----------------------|-----------------0----------|-----------------------0--|
D|----------------------|-----------0--3-----3br--2--|--0-----------------2-----|
A|--0----0----0----0----|-----0--3-------------------|-----3--2--0--2--3--------|
D|----------------------|--5-------------------------|--------------------------|

    Q    Q    Q    Q       Q    Q    Q    Q       Q    Q    Q    Q
G|----------------------|----------------------|----------------------|
D|--3----3----3----3----|--2----2----2----2----|--0----0----0----0----|
A|----------------------|----------------------|----------------------|
D|----------------------|----------------------|----------------------|

    Q    Q    Q    Q       Q    Q    Q    Q       Q    Q    Q    Q
G|----------------------|----------------------|----------------------|
D|----------------------|----------------------|----------------------|
A|--3----3----3----3----|--1----1----1----1----|--0----0----0----0----|
D|----------------------|----------------------|----------------------|


    E  E  E  E  E  E  E    E     E  E  E  E  E  E  E  E     H        Q    Q
G|-----------------0----------|-----------------------0--|---------------------|
D|-----------0--3-----3br--2--|--0-----------------2-----|--3--------3----3----|
A|-----0--3-------------------|-----3--2--0--2--3--------|---------------------|
D|--5-------------------------|--------------------------|---------------------|

    H        Q    Q       H        Q    Q       H        Q    Q
G|--0--------0----0----|--2--------2----2----|---------------------|
D|---------------------|---------------------|--3--------3----3----|
A|---------------------|---------------------|---------------------|
D|---------------------|---------------------|---------------------|

    H        Q    Q       H        Q    Q       H        Q    Q
G|---------------------|---------------------|---------------------|
D|--2--------2----2----|--0--------0----0----|--2--------2----2----|
A|---------------------|---------------------|---------------------|
D|---------------------|---------------------|---------------------|

    E  E  E  E  E  E  E  E     H        Q    Q       H        Q    Q
G|-----------------------0--|---------------------|--0--------0----0----|
D|--0-----------------2-----|--3--------3----3----|---------------------|
A|-----3--2--0--2--3--------|---------------------|---------------------|
D|--------------------------|---------------------|---------------------|

    H        Q    Q       H        Q    Q       H        Q    Q
G|--2--------2----2----|---------------------|---------------------|
D|---------------------|--3--------3----3----|--2--------2----2----|
A|---------------------|---------------------|---------------------|
D|---------------------|---------------------|---------------------|

    H        Q    Q       H        Q    Q       E  E  E  E  E  E  E  E
G|---------------------|---------------------|-----------------------0--|
D|--0--------0----0----|--2--------2----2----|--0-----------------2-----|
A|---------------------|---------------------|-----3--2--0--2--3--------|
D|---------------------|---------------------|--------------------------|

    H        Q    Q       H        Q    Q       H        Q    Q
G|---------------------|---------------------|---------------------|
D|--3--------3----3----|--2--------2----2----|--0--------0----0----|
A|---------------------|---------------------|---------------------|
D|---------------------|---------------------|---------------------|

    H        H           W                   W
G|--------------------|-------------------|-------------------|
D|--3--------2--------|--0----------------|--0----------------|
A|--------------------|-------------------|-------------------|
D|--------------------|-------------------|-------------------|

                                            Q    Q    Q    Q
G|-------------------|-------------------|----------------------|
D|-------------------|-------------------|--0---------0---------|
A|-------------------|-------------------|----------------------|
D|-------------------|-------------------|----------------------|

    Q    Q    Q    Q       Q    Q    Q    Q       Q    Q    Q    Q
G|----------------------|----------------------|----------------------|
D|--2---------2---------|--0---------0---------|----------------------|
A|----------------------|----------------------|--3---------3---------|
D|----------------------|----------------------|----------------------|

    Q    Q    Q    Q       Q    Q    Q    Q       Q    Q    Q    Q
G|----------------------|----------------------|----------------------|
D|--0---------0---------|--2---------2---------|--0---------0---------|
A|----------------------|----------------------|----------------------|
D|----------------------|----------------------|----------------------|

    Q    Q    Q    Q       Q    Q    Q    Q       Q    Q    Q    Q
G|----------------------|----------------------|----------------------|
D|----------------------|--0---------0---------|--2---------2---------|
A|--3---------3---------|----------------------|----------------------|
D|----------------------|----------------------|----------------------|

    Q    Q    Q    Q       Q    Q    Q    Q       Q    Q    Q    Q
G|----------------------|----------------------|----------------------|
D|--0---------0---------|----------------------|--0---------0---------|
A|----------------------|--3---------3---------|----------------------|
D|----------------------|----------------------|----------------------|

    Q    Q    Q    Q       Q    Q    Q    Q       Q    Q    Q    Q
G|----------------------|----------------------|----------------------|-------|
D|--2---------2---------|--0---------0---------|----------------------|-------|
A|----------------------|----------------------|--3---------3---------|-------|
D|----------------------|----------------------|----------------------|-------|

                            Q    Q    Q    Q       Q    Q    Q    Q
G|-------|-------|-------|----------------------|----------------------|
D|-------|-------|-------|--3----3----3----3----|--2----2----2----2----|
A|-------|-------|-------|----------------------|----------------------|
D|-------|-------|-------|----------------------|----------------------|

    Q    Q    Q    Q       Q    Q    Q    Q       Q    Q    Q    Q
G|----------------------|----------------------|----------------------|
D|--0----0----0----0----|----------------------|----------------------|
A|----------------------|--3----3----3----3----|--1----1----1----1----|
D|----------------------|----------------------|----------------------|

    Q    Q    Q    Q       E  E  E  E  E  E  E    E           H        Q    Q
G|----------------------|-----------------0----------|-----|---------------------|
D|----------------------|-----------0--3-----3br--2--|-----|--3--------3----3----|
A|--0----0----0----0----|-----0--3-------------------|-----|---------------------|
D|----------------------|--5-------------------------|-----|---------------------|

    H        Q    Q       H        Q    Q       H        Q    Q
G|--0--------0----0----|--2--------2----2----|---------------------|
D|---------------------|---------------------|--3--------3----3----|
A|---------------------|---------------------|---------------------|
D|---------------------|---------------------|---------------------|

    H        Q    Q       H        Q    Q       H        Q    Q
G|---------------------|---------------------|---------------------|
D|--2--------2----2----|--0--------0----0----|--2--------2----2----|
A|---------------------|---------------------|---------------------|
D|---------------------|---------------------|---------------------|

    E  E  E  E  E  E  E  E     H        Q    Q       H        Q    Q
G|-----------------------0--|---------------------|--0--------0----0----|
D|--0-----------------2-----|--3--------3----3----|---------------------|
A|-----3--2--0--2--3--------|---------------------|---------------------|
D|--------------------------|---------------------|---------------------|

    H        Q    Q       H        Q    Q       H        Q    Q
G|--2--------2----2----|---------------------|---------------------|
D|---------------------|--3--------3----3----|--2--------2----2----|
A|---------------------|---------------------|---------------------|
D|---------------------|---------------------|---------------------|

    H        Q    Q       H        Q    Q       E  E  E  E  E  E  E  E
G|---------------------|---------------------|-----------------------0--|
D|--0--------0----0----|--2--------2----2----|--0-----------------2-----|
A|---------------------|---------------------|-----3--2--0--2--3--------|
D|---------------------|---------------------|--------------------------|

    H        Q    Q       H        Q    Q       H        Q    Q
G|---------------------|---------------------|---------------------|
D|--3--------3----3----|--2--------2----2----|--0--------0----0----|
A|---------------------|---------------------|---------------------|
D|---------------------|---------------------|---------------------|

    H        H           W                   W
G|--------------------|-------------------|-------------------|
D|--3--------2--------|--0----------------|--0----------------|
A|--------------------|-------------------|-------------------|
D|--------------------|-------------------|-------------------|

    E  E  H        Q       E  E  H        Q       E  E  H        Q
G|----------------------|----------------------|----------------------|
D|--0--0----------------|----------------------|----------------------|
A|----------------------|--4--4----------------|--1--1----------------|
D|----------------------|----------------------|----------------------|

    E  E  H        Q       E  E  H        Q       E  E  H        Q
G|----------------------|----------------------|----------------------|
D|----------------------|--0--0----------------|----------------------|
A|----------------------|----------------------|--4--4----------------|
D|--3--3----------------|----------------------|----------------------|

    E  E  H        Q       E  E  H        Q       E  E  H        Q
G|----------------------|----------------------|----------------------|
D|----------------------|----------------------|--0--0----------------|
A|--1--1----------------|----------------------|----------------------|
D|----------------------|--3--3----------------|----------------------|

    E  E  H        Q       E  E  H        Q       E  E  H        Q
G|----------------------|----------------------|----------------------|
D|----------------------|----------------------|----------------------|
A|--4--4----------------|--1--1----------------|----------------------|
D|----------------------|----------------------|--3--3----------------|

    E  E  H        Q       E  E  H        Q       E  E  H        Q
G|----------------------|----------------------|----------------------|
D|--0--0----------------|----------------------|----------------------|
A|----------------------|--4--4----------------|--1--1----------------|
D|----------------------|----------------------|----------------------|

    E  E  H        Q       E  E  H        Q       E  E  H        Q
G|----------------------|----------------------|----------------------|
D|----------------------|--0--0----------------|----------------------|
A|----------------------|----------------------|--4--4----------------|
D|--3--3----------------|----------------------|----------------------|

    E  E  H        Q       E  E  H        Q       E  E  H        Q
G|----------------------|----------------------|----------------------|
D|----------------------|----------------------|--0--0----------------|
A|--1--1----------------|----------------------|----------------------|
D|----------------------|--3--3----------------|----------------------|

    E  E  H        Q       E  E  H        Q       E  E  H        Q
G|----------------------|----------------------|----------------------|
D|----------------------|----------------------|----------------------|
A|--4--4----------------|--1--1----------------|----------------------|
D|----------------------|----------------------|--3--3----------------|

    E  E  H        Q       E  E  H        Q       E  E  H        Q
G|----------------------|----------------------|----------------------|
D|--0--0----------------|----------------------|----------------------|
A|----------------------|--4--4----------------|--1--1----------------|
D|----------------------|----------------------|----------------------|

    E  E  H        Q       E  E  H        Q       E  E  H        Q
G|----------------------|----------------------|----------------------|
D|----------------------|--0--0----------------|----------------------|
A|----------------------|----------------------|--4--4----------------|
D|--3--3----------------|----------------------|----------------------|

    E  E  H        Q       E  E  H        Q       E  E  H        Q
G|----------------------|----------------------|----------------------|
D|----------------------|----------------------|--0--0----------------|
A|--1--1----------------|----------------------|----------------------|
D|----------------------|--3--3----------------|----------------------|

    E  E  H        Q       E  E  H        Q       E  E  H        Q
G|----------------------|----------------------|----------------------|
D|----------------------|----------------------|----------------------|
A|--4--4----------------|--1--1----------------|----------------------|
D|----------------------|----------------------|--3--3----------------|

    E  E  H        Q       E  E  H        Q       E  E  H        Q
G|----------------------|----------------------|----------------------|
D|--0--0----------------|----------------------|----------------------|
A|----------------------|--4--4----------------|--1--1----------------|
D|----------------------|----------------------|----------------------|

    E  E  H        Q       E  E  H        Q       E  E  H        Q
G|----------------------|----------------------|----------------------|
D|----------------------|--0--0----------------|----------------------|
A|----------------------|----------------------|--4--4----------------|
D|--3--3----------------|----------------------|----------------------|

    E  E  H        Q       E  E  H        Q       E  E  H        Q
G|----------------------|----------------------|----------------------|
D|----------------------|----------------------|--0--0----------------|
A|--1--1----------------|----------------------|----------------------|
D|----------------------|--3--3----------------|----------------------|

    E  E  H        Q       E  E  H        Q       E  E  H        Q
G|----------------------|----------------------|----------------------|
D|----------------------|----------------------|----------------------|
A|--4--4----------------|--1--1----------------|----------------------|
D|----------------------|----------------------|--3--3----------------|

    E  E  H        Q       E  E  H        Q       E  E  H        Q
G|----------------------|----------------------|----------------------|
D|--0--0----------------|----------------------|----------------------|
A|----------------------|--4--4----------------|--1--1----------------|
D|----------------------|----------------------|----------------------|

    E  E  H        Q       E  E  H        Q       E  E  H        Q
G|----------------------|----------------------|----------------------|
D|----------------------|--0--0----------------|----------------------|
A|----------------------|----------------------|--4--4----------------|
D|--3--3----------------|----------------------|----------------------|

    E  E  H        Q       E  E  H        Q       E  E  H        Q
G|----------------------|----------------------|----------------------|
D|----------------------|----------------------|--0--0----------------|
A|--1--1----------------|----------------------|----------------------|
D|----------------------|--3--3----------------|----------------------|

    E  E  H        Q       E  E  H        Q       E  E  H        Q
G|----------------------|----------------------|----------------------|
D|----------------------|----------------------|----------------------|
A|--4--4----------------|--1--1----------------|----------------------|
D|----------------------|----------------------|--3--3----------------|

    E  E  H        Q       E  E  H        Q       E  E  H        Q
G|----------------------|----------------------|----------------------|
D|--0--0----------------|----------------------|----------------------|
A|----------------------|--4--4----------------|--1--1----------------|
D|----------------------|----------------------|----------------------|

    E  E  H        Q       E  E  H        Q       E  E  H        Q
G|----------------------|----------------------|----------------------|
D|----------------------|--0--0----------------|----------------------|
A|----------------------|----------------------|--4--4----------------|
D|--3--3----------------|----------------------|----------------------|

    E  E  H        Q       E  E  H        Q       E  E  H        Q
G|----------------------|----------------------|----------------------|
D|----------------------|----------------------|--0--0----------------|
A|--1--1----------------|----------------------|----------------------|
D|----------------------|--3--3----------------|----------------------|

    E  E  H        Q       E  E  H        Q       E  E  H        Q
G|----------------------|----------------------|----------------------|
D|----------------------|----------------------|----------------------|
A|--4--4----------------|--1--1----------------|----------------------|
D|----------------------|----------------------|--3--3----------------|

    E  E  H        Q       E  E  H        Q       E  E  H        Q
G|----------------------|----------------------|----------------------|
D|--0--0----------------|----------------------|----------------------|
A|----------------------|--4--4----------------|--1--1----------------|
D|----------------------|----------------------|----------------------|

    E  E  H        Q       E  E  H        Q       E  E  H        Q
G|----------------------|----------------------|----------------------|
D|----------------------|--0--0----------------|----------------------|
A|----------------------|----------------------|--4--4----------------|
D|--3--3----------------|----------------------|----------------------|

    E  E  H        Q       E  E  H        Q       E  E  H        Q
G|----------------------|----------------------|----------------------|
D|----------------------|----------------------|--0--0----------------|
A|--1--1----------------|----------------------|----------------------|
D|----------------------|--3--3----------------|----------------------|

    E  E  H        Q       E  E  H        Q       E  E  H        Q
G|----------------------|----------------------|----------------------|
D|----------------------|----------------------|----------------------|
A|--4--4----------------|--1--1----------------|----------------------|
D|----------------------|----------------------|--3--3----------------|

    E  E  H        Q       E  E  H        Q       E  E  H        Q
G|----------------------|----------------------|----------------------|
D|--0--0----------------|----------------------|----------------------|
A|----------------------|--4--4----------------|--1--1----------------|
D|----------------------|----------------------|----------------------|

    E  E  H        Q
G|----------------------|
D|----------------------|
A|----------------------|
D|--3--3----------------|

*************************

W - whole
H - half
Q - quarter
E - 8th
S - 16th
T - 32nd
X - 64th
. - note dotted
|-n-|  - n-tuplets

*************************



            
            
Suggest correction
Creating personal tab
Creating personal tab
You can edit any tab online and save it as your Personal.

You can edit, replace or remove any tab part or add personal notes – all changes will be seen only by you.

Personal tabs can be accessed anytime from any device, even offline.
Learn more »
comments
print report bad tab
4 comments total. Showing first comments.
+2 reply
SoftParade1967 512 Jul 05, 2008 10:46 AM

i always thought it was more complex than this. but his is good.

+2 reply
dan182j 10 Jul 31, 2008 02:15 PM

Great tab!! But i have to agree it is way more complex than this

0 reply
mikee-rascal 94 Aug 19, 2008 12:03 PM

have to agree with others from what i can hear sounds more complex but still good attempt and sounds great

guest
Wanna post a correction for this tab? Suggest correction